Guess Who – Tot mai sus

(7 voturi)

Contribuție:  forteleaeriene


INTRO 

    Am                  C
E---------------------------------------
B---1-1-1---1-1-1-1----1-1-1---1-1-1-1--
G---2-2-2---2-2-2-2----0-0-0---0-0-0-0--
D---------------------------------------
A-0------------------3------------------
E---------------------------------------

   G                     Dm
-----------------------------1-1-1---1-1-1-1--
------3-3-3---3-3-3-3--------3-3-3---3-3-3-3--
------0-0-0---0-0-0-0-------------------------
-------------------------0--------------------
----------------------------------------------
--3-------------------------------------------



Toata melodia este bazata pe urmatoarele acorduri:

Am, C, G, Dm

Pop  Hip-hop  

Ultima actualizare:  30.06.2011

Comentarii

Pentru a putea vota sau adăuda comentarii, e nevoie să te autentifici sau înregistrezi .