Cătălin Crișan – Daca pleci

(1 voturi)

Contribuție:  sammy81


Capo 3

Intro

                                                                                        
E:---7--5--7--7--10--10--8---8---7—--5—-3--5—-5--8---8---7--7--5-----------|
B:---8--7--8--8--12--12--10--10--8—--7—-5--7—-7--10--10--8--8--7—----------|
G:-------------------------------------------------------------------------|
D:-------------------------------------------------------------------------|
A:-------------------------------------------------------------------------|
E:-------------------------------------------------------------------------|

                                                                                                 
E:--3--2--3—-3--7--7--5--5--3--3--2--2--0--0---------------------------------|
B:--5--3--5—-5--8--8--7--7--5--5--3--3--1—-1--3--3--1--0---------------------|
G:--------------------------------------------5--5--2--0---------------------|
D:---------------------------------------------------------------------------|
A:---------------------------------------------------------------------------|
E:---------------------------------------------------------------------------|


                                                                                                 
E:---7--5--7-----------------7--10--10---8---8--7--5--3--5-------------------|
B:---8--7--8-10p8-10--8-10---8--12--12--10--10--8--7--5--7—-8p7--8--7--8-----|
G:---------------------------------------------------------------------------|
D:---------------------------------------------------------------------------|
A:---------------------------------------------------------------------------|
E:---------------------------------------------------------------------------|

                                                                         
E:--5--8--8---7--7--5---3--2--3--------------3--7-7--5--5--3--3--2—-2--0--0--|
B:--7-10--10--8--8--7---5--3--5—7p5--7--5-7--5--8-8--7--7--5--5--3—-3--1--1--|
G:---------------------------------------------------------------------------|
D:---------------------------------------------------------------------------|
A:---------------------------------------------------------------------------|
E:---------------------------------------------------------------------------|


E:---------------------------------------------------------------------------|
B:---3---3---1---0---3p1--0--------------------------------------------------|
G:---5---5---2---0-----------2--0--------------------------------------------|
D:---------------------------------4--2--0-----------------------------------|
A:---------------------------------------------------------------------------|
E:---------------------------------------------------------------------------|


G                       Em
Vrei să pleci şi să nu spui 
C       D
Dar am aflat 
G                          Em
Si-am să-ţi pun eu pofta-n cui 
C   Bm   G  D
Cum n-ai visat 


Refren:

G
Dacă pleci, vreau să vin cu tine, 
D
Dacă pleci, ia-mă şi pe mine, 
C
Dacă pleci, 
               Em               D              Am      G
N-ai să poţi trăi cu tot ce-a fost şi nu mai vrei să ştii 


G                Em
Iar dacă te văd cumva 
C       D
Cu-altcineva
G                    Em 
Stii că n-am să pot uita
C  Bm    G  D 
Nu te-aş ierta

Pentru a putea vota sau adăuda comentarii, e nevoie să te autentifici sau înregistrezi .