Ovidiu Mihăilescu – Ilie

(2 voturi)

Contribuție:  Radu.


Ovidiu Mihailescu- Ilie

Intro x 2

e|----0-0-0-0-0-0-----0-0-0-0-0-0------0-0-0-0-0-0-----0-0--0--0--0--0--0--0------
B|----0-0-0-0-0-0-----0-0-0-0-0-0------0-0-0-0-0-0-----0-0--0--0--0--0--0--0------
G|----9-9-9-9-9-9-----7-7-9-9-9-9------9-9-9-9-9-9----12-12-12-12-14-14-14-14-----
D|----9-9-9-9-9-9-----7-7-9-9-9-9------9-9-9-9-9-9----12-12-12-12-14-14-14-14-----
A|----7-7-7-7-7-7-----5-5-7-7-7-7------7-7-7-7-7-7----10-10-10-10-12-12-12-12-----
E|--0---------------0----------------0--------------------------------------------

Fill 1

e|----0--0--0--0---------
B|----0--0--0--0---------
G|----0--0--0--0---------
D|----0--0--0--0---------
A|----2--2--0--0---------
E|----3--3--2--2---------


Acordul X: 5 5 4 0 3 0

Strofa 1:
Em              C  Fill 1
Ilie se duce la munca,
Em           C  Fill 1
Se-aseaza la birou
Em               C  Fill 1
A trecut un an si el inca,
Em            c  Fill 1
Munceste ca un bou.

Refren:
C            X             Em
Ilie, munca ta nu te va elibera.   x2

Strofa 2:

Ilie se duce la munca,
Si sta pana noaptea tarziu,
Munceste si-atunci cand mananca,
S-a dus inc-un an de pustiu.

Refren.

Strofa 3: 

Ilie se duce la munca,
Nu face prea multi bani
A devenit dur ca o stanca,
Si uite-au trecut 10 ani.

Strofa 4:

Ilie se duce la munca,
Deja de vreo 30 de ani
Acum are cearcane-n burta,
Si nici acum nu are bani.

Refren.

Em C Fill 1 x 4

Bridge:

Bm
Ilie traieste cu visul,
Em
Ca va fi bogat intr-o zi,
Bm
Ca o sa-si gaseasca iubirea
C
Si ca intr-o zi va trai,
x        
Va traiiiii,
Em       c Fill1
Va trai.

Em C Fill1 x3.

Intro x2.

Em C Fill1 x2

Strofa 5:

Ilie se duce la munca,
De cincizeci de ani si ceva,
E slab si curbat ca o furca,
Si maine se va pensiona.

Strofa 6:

Ilie se duce la munca,
Patronii il cheama la ei,
Ii dau o placheta rotunda
Si-o prima de-o suta de lei.

Refren.

Em C Fill1 x2

Strofa 7:

Ilie s-ar duce la munca,
Dar sta de o luna-n spital,
Iar doctoru-i spune "mai draga,
Eu te-as opera da' n-ai bani".

Strofa 8:

Imi trebuie-o cruce de piatra,
Pe care Ilie e scris
O viata de munca privata
Nu te duce in Paradis.

Refren x2

Em c Fill1 x2


Ritmul il preluati din melodie. Nu e prea greu.:) Have fun!

Folk  

Ultima actualizare:  24.03.2012

Pentru a putea vota sau adăuda comentarii, e nevoie să te autentifici sau înregistrezi .