Fără Zahăr – Ler de ler

(4 voturi)

Contribuție:  Volkane


Melodia este doar pe ciupituri aşa că spor la învăţat:
                                             (aveţi destul timp până la Crăciun)

Solistică strofă:

                                                
e|---------2---------------3---------------2---------------0-------|
B|-----3-----3---3-----3-----3---3-----3-----3---3-----2-----2---2-|
G|---2---2-----2-----0---0-----0-----2---2-----2-----2---2-----2---|
D|-0---------------0---------------0---------------2---------------|
A|-----------------------------------------------------------------|
E|-----------------------------------------------------------------|

                                                
e|---------3---------------2---------------0---------------0-------|
B|-----3-----3---3-----3-----3---3-----2-----2---2-----2-----2---2-|
G|---0---0-----0-----2---2-----2-----2---2-----2-----2---2-----2---|
D|-0---------------0---------------2---------------2---------------|
A|-----------------------------------------------------------------|
E|-----------------------------------------------------------------|

                  
e|---------2---------------3-------|
B|-----3-----3---3-----3-----3---3-|
G|---2---2-----2-----0---0-----0---|
D|-0---------------0---------------|
A|---------------------------------|
E|---------------------------------|

Solistică refren:

                                                
e|---------3---------------2---------------0---------------2-------|
B|-----3-----3---3-----3-----3---3-----2-----2---2-----3-----3---3-|
G|---0---0-----0-----2---2-----2-----2---2-----2-----2---2-----2---|
D|-0---------------0---------------2---------------0---------------|
A|-----------------------------------------------------------------|
E|-----------------------------------------------------------------|

                                                
e|---------3---------------2---------------0---------------0-------|
B|-----3-----3---3-----3-----3---3-----2-----2---2-----2-----2---2-|
G|---0---0-----0-----2---2-----2-----2---2-----2-----2---2-----2---|
D|-0---------------0---------------2---------------2---------------|
A|-----------------------------------------------------------------|
E|-----------------------------------------------------------------|

                  
e|---------2---------------3-------|
B|-----3-----3---3-----3-----3---3-|
G|---2---2-----2-----0---0-----0---|
D|-0---------------0---------------|
A|---------------------------------|
E|---------------------------------|


#Recomandare: ciupituri cu mâna liberă (2 degete)

#Indicaţie: degetul mare pentru notele de pe corzile D şi G
            indexul pentru notele de pe corzile B şi e

#Notă: Tabulaturile sunt făcute astfel încât să se îmbine între
ele, nu mai e nevoie de pauze (între strofă şi refren)
suplimentare, doar respectaţi notele.

*********************************
Intro: D G D A

D                G
  Şi ninge fără de răgaz
      D             A
  Şi ne-ntrebăm cu toţi la masă
     G            D
  De unde Doamne bani de gaz
     A       A          D    D
  Să încălzim întreaga casă?

      G      D      A      D
Ref: Leru-i ler şi iarăşi ler
       G   D  A  A  D  D
     Crapă oile de ger

La poartă bate un om bun
Căci uite, câinele nu-l muşcă
Să fie oare Moş Crăciun?
Este vestitul Ştefan Hruşcă

El în Americi stă ascuns
Şi vine-acum şi ne surprinde
Fiindcă în anul ce s-a scurs
A mai compus vreo opt colinde

Ref:...

Şi am ca plan de viitor
Să pun deoparte nişte lei
Să vină doctorul Harbuz
Să mi-l dreseze pe Grivei

Şi când aude “Leru-i ler”
Să-şi ia comanda de atac
Şi până după sărbători
Să nu-l coboare din copac

Ref:...

Că dacă nu am bani de gaz
Şi nu am bani să beau o duşcă
Şi nici nu ştiu ce-nseamnă ler
De ce să-mi cânte Ştefan Hruşcă?

Ref:...x2

*********************************

P.S.: Tabulaturile sunt mult mai uşoare decât par... şi sărbători fericite! [:))]

Ultima actualizare:  08.10.2011

Pentru a putea vota sau adăuda comentarii, e nevoie să te autentifici sau înregistrezi .

Acorduri