Daniel Iancu – Mi-a batut dealul la poarta(Ciupitura)

Contribuție:  smurf


Intro-ul mi-am dat seama ca nu era bun asa ca l-am sters o sa las doar ciupitura aceasta si
inca una.

Am
------0---x--------------0---x-----0--x----
------1---x--------------1---x-----1--x---
------2---x--------------2---x-----2--x----
----------------------------------------
--0--------------------0--------0---------
----------------------------

dead note se face cu mana stanga



Sau:

Am



------0---x--------------------0---x--
------1---x--------------------1---x--
------2---x----------------2---2---x--
------------------------2-------------
--0----------------------------------
----------------------------

Folk  

Ultima actualizare:  13.10.2011

Pentru a putea vota sau adăuda comentarii, e nevoie să te autentifici sau înregistrezi .