Coma – Canta-mi povestea

(47 voturi)

Contribuție:  anonim175


intro
E||---------------------------------------------------|
B||---------------------------------------------------|
G||---------------------------------------------------|
D||---------------------9--------------4--5-----5--4--|
A||--7--------7--9--10-------10--9--5--------3--------|
E||---------------------------------------------------|

strofa

E||-----------|
B||-----------|
G||--5--7--9--|
D||--5--7--9--|
A||--3--5--7--|
E||-----------|

refren

--0--0--3--3--||
--0--1--5--3--||
--0--2--5--4--||
--2--2--5--5--||
--2--0--3--5--||
--0--0--3--3--||

Rock  

Comentarii

Pentru a putea vota sau adăuda comentarii, e nevoie să te autentifici sau înregistrezi .