Fly Project – Musica (intro)

(6 voturi)

Contribuție:  forteleaeriene


E-7/8-7-7-7/8-—6/8-7-7-7/8-—6/8-7-7-7/8-1/3-3-3/15-13-12-8---
B------------------------------------------------------------
G------------------------------------------------------------
D------------------------------------------------------------
A------------------------------------------------------------
E------------------------------------------------------------


E-7/8-7-7-7/8—-6/8-7-7-7/8—-6/8-7-7-7/8-5--------------------
B------------------------------------------------------------
G------------------------------------------------------------
D------------------------------------------------------------
A------------------------------------------------------------
E------------------------------------------------------------


    Am            F           C           G
E-----------------------------------------3-1-0--
B----1-1h3p1-----1-1h3p1-----1-1h3p1-----3-------
G---2-----------2-----------0-----------0--------
D--2-----------3-----------2-----------0---------
A-0-----------3-----------3----------------------
E-------------------------------------3----------

     Am           F           Em      Am
E----------------------------------------
B----1-1h3p1-----1-1h3p1-----0-0h1p1-----
G---2-----------2-----------0---------2--
D--2-----------3-----------2-------------
A-0-----------3-----------------------0--
E-------------------------0--------------

Dance  

Comentarii

Pentru a putea vota sau adăuda comentarii, e nevoie să te autentifici sau înregistrezi .