Dan Andrei Aldea – Om bun

(19 voturi)

Contribuție:  anonim155


intro:

E|-------------------|-----------------------|---------------------------|
B|-------------------|-----------------------|---------------------------|
G|-------------------|--------0--0-----------|--0--0---------------------|
D|--0---3--2--0---0-0|3--2--3------2--3--0--2|2------3--3--2--0---0--0--0|
A|0-------------3----|-----------------------|------------------3--------|
E|-------------------|-----------------------|---------------------------|

E|-------------------|---------------------|
B|-------------------|---------------------|
G|0--0---------------|---------------------|
D|-----3--3--2--0---0|0--2--3---2--0---2--0|
A|----------------3--|---------------3-----|
E|-------------------|---------------------|
   
MENTIONARE: ACORDUL X PE CARE IL VETI GASI IN ACEST TEXT REPREZINTA BATAIA
PE TOATE CORZILE LIBERE.

                 
Om bun deschide-ne poarta
                     
Dă-ne o coajă şi nu ne goni
                       
În schimb îţi vom alunga tristeţea
                          Am-E-C--E-Am-X--E-Am
Cu vesele cântece şi ghiduşii.    

Venim de departe şi mergem departe
Tocmai în zare sus la castel
Ne-am oprit aici pe drum ne-a prins noaptea
Dă adăpost unor bieti menestreli.

La castel mâine va fi sărbătoare
Prințesa-mplinește ani douăzeci
Vom bea mult vin, vom goli tăvi cu mâncare
Ce va fi acolo, să tot petreci!

Noi vom cânta noaptea întreaga
Oaspeții veseli vor dănțui
Și-n toiul petrecerii, preț de o clipă
Om bun, și la tine ne vom gândi.

Deschide poarta și dă-ne o coajă
Ai milă de niște bieți menestreli
Veșnic pe drum asta ni-i soarta
Veșnic pe drum căutând un castel.

Folk  

Comentarii

Pentru a putea vota sau adăuda comentarii, e nevoie să te autentifici sau înregistrezi .

Acorduri