Ska-nk – Mama lui Andrei

(2 voturi)

Contribuție:  ghit razvan


Acordaj cu un semiton mai jos!
Chitara solo e in josul paginii!

INTRO: B, F#, G#m, E

                    
Am fost aseara-n club
                     
Si-am intalnit o vampa, dansa pe cub
               
Ce fusta deocheata-avea
                  
Si cat de bine-arata.


Pahare cu alcool (pahare cu alcool),
Baieti cu brate mari si creier gol
Ea toate le ignora,
Dar oare ce astepta?

                        
Vampa aceea ce danseaza cu toata lumea-n juru ei,
                    
Se intoarce si se uita drept in ochii mei!

                    
REF: E mama lui Andrei,
                  
     Ea rupe toata discoteca-n trei
                     
     Nu am curajul sa-i vorbesc
                              
     Caci gandu-mi zboara la...

Cum sa ajung langa ea
Sa o invit la dans, sa spuna da
Cu mersul ei fermecator,
Venea spre mine usor

Incerc sa par serios
Privesc in gol profund misterios
Dar vine, vine tiptil
Si ma atinge subtil

La ureche imi sopteste, sa plecam de-aici acum
Si pana la ea acasa ne sarutam pe drum!

REF: E mama lu Andrei,
     E goala si sunt gol in fatza ei,
     Cuvintele n-au sens acum
     Andrei, prietene bun.

     E mama lui Andrei,
     As vrea sa fiu mereu in jurul ei
     Sa simt parfumul ei de flori,
     Cand ma trezeste in zorï

CHITARA SOLO

Intro:
Eb--------------------------------------------------------------------------------------
Bb--12/14-10-9/10/12/14-14-12-10-----/10-9-7-9-10/12-10-9-99h10--10-9-7-9h10-/12/14/15~
F#--------------------------------------------------------------------------------------
C#--------------------------------------------------------------------------------------
G#--------------------------------------------------------------------------------------
Eb--------------------------------------------------------------------------------------



Eb----2-5-2---2-5-7/9-7-5~---------2-5-2---2-5-7/9-7-5~
Bb-2-5------5------------------2-5------5--------------
F#-----------------------------------------------------
C#-----------------------------------------------------
G#-----------------------------------------------------
Eb-----------------------------------------------------

Vers:

Eb------------------------------------------------------------------------------------------------------------------
Bb-----10101010/999/101010/7777/10101010/999/10/1414/12/10------10101010/999/101010/7777/10101010/999/10/777/333----
F#-----xxxxxxx xxxx xxxxxx xxxx xxxxxxxx xxxxxx xxxxxxx xxx-----xxxxxxx xxxx xxxxxx xxxx xxxxxxxx xxxxxxxxxxxxxx----
C#-----7777777/666/ 77777/4444/77777777/666/7 /1111/9/  7-------7777777/666/ 77777/4444/77777777/666/7 /4444/000----
G#------------------------------------------------------------------------------------------------------------------
Eb------------------------------------------------------------------------------------------------------------------

Bridge:

Eb---------------------------------------------------------
Bb---------------------------------------------------------
F#------------------------------------------9b11-9---------
C#-------------------------------7---7--7-9-------9-7~~-----
G#---12~~~~9~~~~~12scratch/7-9---9--9--------------------
Eb---------------------------------------------------------


Refren:

Eb--------------------------------
Bb--------------------------------
F#----------999--111111---776h7---
C#----777---999--111111---77  7---
G#----777---777--9 9 9----55  5---
Eb----555-------------------------

Ultima actualizare:  19.02.2013

Comentarii

Pentru a putea vota sau adăuda comentarii, e nevoie să te autentifici sau înregistrezi .

Acorduri