Nicu Alifantis – Sonet

(3 voturi)

Contribuție:  andrey09


Intro:    bis                      Bis*                bis
E--------------------|------------------------|--------------------|
A--------------------|------------------------|--------------------|
D-0------------------|-0----------------------|-0------------2-----|
G--7----7----7-----7-|---2---2--2--2--2---2---|---7--------2--2----|
B---5-6--5-6---5-6---|-----0-----0------0-----|-----5-6h-5---------|
E--------------------|--------0-----0-------0-|-----------------12-|

E---------------------------------------------|--------------------------------
A---------------------------------------------|--------------------------------
D-4----7----6---9------7----6----4----3-----7-|--------------------------------
G--5----8----7---10-----8----7----5----4------|--------aici inca one more Bis*-
B---4----7----6----9-----7----6----4----3-----|--------------------------------
E----5----8----7----10----8----7----5----4----|--------------------------------

Vers:1)

     Dm      G     Am      E             
E---------------|-----0------|
A---------------|--0-3--2---0|
D-0-------------|--2----2----|
G--2-----2-0-0--|--2----1----|
B---3-----3--0--|--1----0----|
E----0-1-----3--|-------0----|



                                
1)Nu-s ochii dragei mele stropi de soare
                          
Şi roşul gurii ei nu-i de coral.
                              
De-i albă neaua, sânu-i oacheş pare
                            
Şi negrul păr i-e ca o sârmă-n val.
                             
Ştiu roze albe, ştiu şi roze roşi,
                            
Dar nu-i socot obrajii trandafiri

2)
     Dm    Am  E                     
E------------------------|
A-------------2----------|
D-------------2----------|
G---2-----2---1-1-1--1---|
B--3-3----1---0----0-----|
E-1---1---0------0----0--|

       Dm                      Am             
2)Şi-s balsamuri mai dulci să le miroşi
        E
Decât e boarea întregii sale firi.




Vers:3)

     Dm      G     C      E        Am     bis  E  
E---------------|--------------|------------------|
A---------------|-3---------2--|-----------2------|
D-0-------------|--------------|-2----------------|
G--2-----2-0-0--|--0---------1-|--2-2--2----1-1-1-|
B---3-----3--0--|--1---------0-|---1---------0----|
E----0-1-----3--|--0---------0-|-----0---------0--|


               Dm          G
3)Îmi place s-o aud, deşi plăcut
                                
Mai mult mi-e zvonul muzicilor parcă.
             Am              E  
Eu mers de zâna încă n-am văzut,
             Am                  E
Dar draga mea e clar că-n ţărnă calcă.



Vers:4)
     Dm                    
E--------|
A--------|
D-0------|
G--2-----|
B---3----|
E----0-1-|

4)

Dm
      Şi totuşi, eu o cred la fel de rară
      Cum spun(**) şi cei ce mint(**) când o compară.
(**) 
E------------
A------------
D-2----------
G------------
B------------
E---0---12---


Sfirsitul il luati din INTRO (nu trebuie doar prima bucatica)
Va propun p.u audiere piesa ( http://www.youtube.com/watch?v=iP6B1nAof98 ) si este 
important sa intelegeti ca putine versuri se cinta kiar pe muzica , in majoritatea 
momentelor e la inceput sau la sfirshitul versului muzica.
In locurile unde cifrele sunt aranjate intr-un rind de ex:xxxxxx(doar ca pe verticala) 
se cinta nu cu bataie ,da cu lovirea consecutiva rapida a coardelor.
Succes!

Folk  

Ultima actualizare:  10.04.2012

Pentru a putea vota sau adăuda comentarii, e nevoie să te autentifici sau înregistrezi .

Acorduri