Mihai Mărgineanu – Eu te-am iubit Paraschivo

(76 voturi)

Contribuție:  Gr@$$u


personal folosesc o trecere intre acorduri, ca mai jos:

                                                    
e -1----------0-----------2-----------0----------1-----------
B -3----------1-----------3-----------1----------3-----------
G -2----------0-----------4-----------0----------2-----------
D -0----------2-----------4-----------2----------0-----------
A -----3--2---3---2---0---2---0---2---3--------------3---2---
E -----------------------------------------------------------

                      
0----------0-----------0----------------
1----------0-----------1----------------
0----------1-----------2----------------
2----------2-----------2----------------
3---2---0--2-----------0----------------
-----------0---2---4--------------------

ascultati melodia si va dati seama repede
imi cer scuze pentru ortografie, nu sunt foarte la curent cu noile reguli.

	                  
	Ce mult te am iubit Paraschivo

	                      
	Ti am zis-o de-o mie de ori

	                       
	Si ca drept dovada ti-am adus gramada

                              
	Vreo trei basculante de flori

	                       
	Si ca drept dovada ti-am adus gramada

                                      
	Vreo trei basculante de flori




	Te-am luat de la mata d'acasa
	In fusta si far' de jupon
	Ti-am luat si poseta, ti-am luat si jacheta
	Si-o geaca misto de nylon
	Ti-am luat si poseta, ti-am luat si jacheta
	Si-o rochie misto de nylon

	Te-am si cultivat Paraschivo
	Te-am dus la chermeza si meci
	Ti-am luat si bomboane, ti-am luat si samanta fa,
	Tu faci pe nasoala si pleci
	Ti-am luat si bomboane, ti-am luat si samanta fa,
	Tu faci pe nasoala si pleci
	
	Pe frati-tu si pe tot neamu'
	Sa nu va mai prind ca ma rogi
	V-am scos dintr-o pivnita cand v-a spart geamu'
	Pai f____a-n gat de milogi
	V-am scos dintr-o pivnita cand v-a spart geamu'
	Pai f____a-n c_r de milogi

	La dragostea mea aia mare
	Mai spun doua vorbe si-atat
	Cand iese luna imi scot bracinarii fa
	Ma spanzur cu ma-ta de gat,
	Ca cand iese luna imi scot bracinarii
	Ma spanzur cu ma-ta de gat,

	Cand tac-tu bolnav de holera
	In trei patru zile-a crapat
	Si bani de tamaie si bani de coliva
	Tot mandea saracu ti-a dat
	Si bani de coliva si bani de tamaie
	Tot mandea saracu ti-a dat

	Dar daca te prind Paraschivo
	La brat cu alt gealat
	Iti iau si poseta iti bat si gagiul
	Si o suta de pumni iei in cap
	Iti bat si poseta iti iau si gagiul
	Si-o suta de pumni iei in cap

Comentarii

Pentru a putea vota sau adăuda comentarii, e nevoie să te autentifici sau înregistrezi .

Acorduri