Connect-R – Vara nu dorm

(4 voturi)

Contribuție:  adrian.puscasu


Eu cant piesa cu capodastrul pe tasta III in felul urmator:

                                                          
e|-----0--x--0--|-----0-----0--|-----0--x--0--|-----0-----0--| 
B|-----0--x--0--|-----0-----0--|-----1--x--1--|-----1-----1--|
G|-----0--x--0--|-----0-----0--|-----2--x--2--|-----2-----2--|
D|--------x-----|--------------|--------x-----|--------------|
A|--------x-----|--2-----------|--0-----x-----|--0-----2-----|
E|--0-----x-----|--------3-----|--------x-----|--------------|


                                                           
e|-----0--x--0--|-----0-----0--|-----0--x--0--|-----0-----0--| 
B|-----1--x--1--|-----1-----1--|-----0--x--0--|-----0-----0--|
G|-----0--x--0--|-----0-----0--|-----0--x--0--|-----0-----0--|
D|--------x-----|--------0-----|--------x-----|--------------|
A|--3-----x-----|--3-----------|--------x-----|--------------|
E|--------x-----|--------------|--0-----x-----|--0-----0-----|

Em
Eu vara nu dorm, hei, decat daca-mi dai somnifere 
Am
Si cum nu iau pastile, kamarero da-mi o bere
C
Beau in cinstea soarelui ca mi-a fost dor de el
Em
Si el bea in cinstea mea fiindca o arde la fel.
Em
Am hibernat ca ursul toata iarna
Am
Mut resedinta la Constanta, in sfarsit a venit vara!
C
Dimineata mahmureala, da-i cu sana, umple cana
Em
Ca un weekend la Mamaia e cat un sezon la Varna
Em
Fratii mei… Moldova, Ardeal sau Bucuresti,
Am
Cu bani putini sau multi cu toti o ardem in Costinesti
C
Paharul sus..now, ca mie-mi place sa dorm, aha...
Em
Nu de altceva dar eu vara nu...


Refren:
Em
Eu vara nu dorm,
                       Am
Vara nu dorm, nu am somn (nu am somn)
                    C
Zorii zilei ma prind, cum pe plaja ma plimb
                        Em
Pentru ca vara nu dorm!

Em
Eu vara nu dorm,
                       Am
Vara nu dorm, nu am somn (nu am somn)
                    C
Zorii zilei ma prind, cum pe plaja ma plimb
                        Em
Pentru ca vara nu dorm!

Pop  

Comentarii

Pentru a putea vota sau adăuda comentarii, e nevoie să te autentifici sau înregistrezi .

Acorduri