Connect-R – Vara nu dorm

(5 voturi)

Contribuție:  forteleaeriene


Ca sa cantati in tonalitatea originala, puneti un capodastru pe fretul 3:


E---0-x-0---0---0----0-x-0---0---0---0-x-0-----0--------0-x-0--0-x-0--
B---0-x-0---0---0----1-x-1---1---0---1-x-1-----1---4----0-x-0--0-x-0--
G---0-x-0---0---0----2-x-2---2---2---0-x-0-----0---4----0-x-0--0-x-0--
D--------------------------------------------------4------------------
A---------2---------0-------0---2---3--------3----2-------------------
E--0----------3----------------------------------------0------0-------



Partea dupa “cand am o gasca-ntreaga care striga rappin’ on” este asa:


E------------------------
B----5---5---5---5----4--
G----5---5---5---5----4--
D----5---5---5---5----4--
A---3---3---3---3----2---
E------------------------

Succes!

Pop  

Pentru a putea vota sau adăuda comentarii, e nevoie să te autentifici sau înregistrezi .