Ștefan Hrușcă – Ruga pentru parinti

(10 voturi)

Contribuție:  valpop


Ruga pentru parinti                                              

               
1. Enigmatici si cuminti
                       
   Terminandu-si rostul lor, 
                    
   Langa noi se sting si mor,
                       
   Dragii nostri, dragi parinti.
                  
   Cheama-i doamne inapoi,
                   
   Ca si-asa au dus-o prost
                     
   Si fa-i tineri cum au fost
                       
   Fa-i mai tineri decat noi.

 2. Pentru cei ce ne-au facut
Da un ordin da ceva,
Sa-i mai poti intarzia,
Sa o ia de la-nceput.
Au platit cu viata lor,
Ale fiilor erori,
Doamne fa-i nemuritori,
Pe parintii care mor.

3. Ia privitii cum se duc
Ia privitii cum se sting, 
Lumanari in cuib de cuc,
Parca tac si parca mint, 
Plini de boli si suferinti,
Ne intoarcem in pamant,
Cat mai suntem cat mai sunt
Mangaiatii pe parinti.

4. E pamantul tot mai greu
Despartirea-i tot mai grea,
Sarut mana tatal meu
 Sarut mana mama mea
Dar de ce priviti asa,
Fata mea si fiul meu
Eu sunt cel ce va urma,
Dragii mei ma duc si eu.

5. Sarut mana tatal meu,
 Sarut mana mama mea,
Ramas bun baiatul meu,
Ramas bun fetita mea.
Tatal meu, baiatul meu,
Mama mea, fetïta mea.



     Am                           Am                       
            
E||--0--------0--------0-----||---0--------0--------0-----|
B||-----1--------1--------1--||------1--------1--------1--|
G||--------2--------2--------||*--------2--------2--------|
D||--------------------------||*--------------------------|
A||--0-----------------------||---0-----------------------|
E||--------------------------||---------------------------|


  Dm                         G                        
   
--1--------1--------1-----|--3--------3--------3-----|
-----3--------3--------3--|-----0--------0--------0--|
--------2--------2--------|--------0--------0--------|
--------------------------|--------------------------|
--------------------------|--------------------------|
--------------------------|--------------------------|


  Em                         Am                       
 
--0--------0--------0-----|--0--------0--------0-----|
-----0--------0--------0--|-----1--------1--------1--|
--------0--------0--------|--------2--------2--------|
--------------------------|--------------------------|
--------------------------|--------------------------|
--------------------------|--------------------------| etc.

Ultima actualizare:  27.12.2015

Comentarii

Pentru a putea vota sau adăuda comentarii, e nevoie să te autentifici sau înregistrezi .

Acorduri