Mirela Atudorei – Cântec cu descântec

(1 voturi)

Contribuție:  SilverBlue


Capo pe fretul II


    Am            C    G     Am
e|--------0----------------------0--------0-----
B|-----------1------1----3---------1--------1---
G|-----2-----------------------2--------2-------
D|----------------------------------------------
A|--0-------------3----------0--------0---------
E|---------------------3------------------------
    De-ai veni la mine pe-nserat
    Cu inima      arsă și-un oftat

    C              G        C        G
e|--------0------------3--------0--------3------
B|-----------1-----------3--------1--------3----
G|-----0-------------0--------0--------0--------
D|----------------------------------------------
A|--3-----------------------3-------------------
E|-----------------3-----------------3----------
    Ți-aș cânta de dor,     ca să te omor 

    C              G    E      Am
e|--------0------------------------0-------0----
B|-----------1-------3----0----------1-------1--
G|-----0-------------------------2-------2------
D|----------------------------------------------
A|--3--------------------------0-------0--------
E|-----------------3----0-----------------------
    Ți-aș cânta de dragoste și dor


                     
De-ai veni la mine pe-nserat
	          
Cu inima arsă și-un oftat
	                   
Ți-aș cânta de dor, ca să te omor
                        
Ți-aș cânta de dragoste și dor

Și de-ar fi să-mi juri că ai plecat
După ce mi-ai dat un sărutat
Ți-aș cânta cu foc, să nu ai noroc
Să nu mai iubești o alta-n loc

Și de-ar fi să pleci și să nu vii
Decât după ce te-ai cătăni
Eu te-aș aștepta, că-s drăguța ta
Și de dragoste aș tot cânta

Folk  

Pentru a putea vota sau adăuda comentarii, e nevoie să te autentifici sau înregistrezi .

Acorduri