Robin and the Backstabbers – Sat dupa sat

(2 voturi)

Contribuție:  dudutsz


b = bend.

e|-------5--2--------5/7-----------5--2--------------------------------------|
B|--3/5--------3/5-----------3/5------------3/5--5/7-------------------------|
G|---------------------------------------------------------------------------|
D|---------------------------------------------------------------------------|
A|---------------------------------------------------------------------------|
E|---------------------------------------------------------------------------|

e|-------5--2--------5--7---------5--2--7--10b-------------------------------|
B|--3/5--------3/5-----------3/5---------------------------------------------|
G|---------------------------------------------------------------------------|
D|---------------------------------------------------------------------------|
A|---------------------------------------------------------------------------|
E|---------------------------------------------------------------------------|


Trece sat după sat

Trece lacu-ngheţat

Trece munţi
     
Trece dealuri
Şi miresei prin pat

Trece până te-nsori

Trece timpul şi mori

Trece ca să te ia

Din casa plină de flori

Trece luna pe cer
Peste drumul de fier
Printre borcane
Printre hărţi
în şcoala goală de cartier
Trece "strange din dinţi"
Trece dar tu nu simţi
Trece un cantec cântat
De o armata de sfinţi 

Nu mai vreau să aud niciun cantec trist
Nu mai vreau să aud niciun cantec deştept
Pleci acum te-nteleg, e de-ajuns, nu insist
E de-ajuns ca imi arde radioul in piept

Latră-un caine-n vecini
Latră şi tu te-nchini
Latră viaţa în noi
Noi facem dragoste-n maşini
Bate-un ceas în altar
Latra timpu-n zadar
Viaţa-i o foaie in vânt
Smulsă dintr-un abecedar

Intra vulpea-n gaini
Intra noaptea-n lumini
Am sarutat un obraz
Intr-o livada de maslini
Trece an dupa an
Trec lumini pe tavan
Am zambit prea tarziu, 
Am tras tarziu de volan 

Trece sat după sat... (x16)

Nu mai vreau să aud niciun cantec trist
Nu mai vreau să aud niciun cantec deştept
Pleci acum te-nteleg, e de-ajuns, nu insist
E de-ajuns ca imi arde radioul in pïept


Aruncati cu rosii :)

Pop-Rock  

Comentarii

Pentru a putea vota sau adăuda comentarii, e nevoie să te autentifici sau înregistrezi .

Acorduri