Travka – Indiferent (bass)

Contribuție:  Shakespeare


Bass-ul de la piesa "Indiferent" - Travka


(intro & vers 0:00-0:38)
|-----------------------------------------------------------------|
|-----------------------------------------------------------------|
|-----------------4-4-4-4-4-4-4-4-5-5-5-5-5-5-5-4---------2-2-2-4-|  (x4)
|-2-2-2-2-2-2-2-2---------------------------------5-5-5-5---------|

|-----------------------------------------------------------------|
|-----------------------------------------------------------------|
|-----------------4-4-4-4-4-4-4-4-5-5-5-5-5-5-5-4-----------------|
|-2-2-2-2-2-2-2-2---------------------------------5-5-5-5-2-2-2-2-|

(pre-refren 0:39-0:53)
|-----------------------------------------------------------------|
|-----------------------------------------------------------------|
|---------------------------------4-4-4-4-4-4-4-4-5-5-5-5-5-5-5-5-|  (x2)
|-5-5-5-5-5-5-5-5-4-4-4-4-4-4-4-4---------------------------------|

(refren 0:54-1:10)
|---------------------------------|
|---------------------------------|
|---------4-4-4-4-5-5-5-5-----2-2-| (x4)
|-2-2-2-2-----------------5-5-----|

(vers 1:11-1:41)
|-----------------------------------------------------------------|
|-----------------------------------------------------------------|
|-----------------4-4-4-4-4-4-4-4-5-5-5-5-5-5-5-4---------2-2-2-4-|  (x3)
|-2-2-2-2-2-2-2-2---------------------------------5-5-5-5---------|

|-----------------------------------------------------------------|
|-----------------------------------------------------------------|
|-----------------4-4-4-4-4-4-4-4-5-5-5-5-5-5-5-4-----------------|
|-2-2-2-2-2-2-2-2---------------------------------5-5-5-5-2-2-2-2-|


(pre-refren 1:41-1:54)

(refren 1:55-2:11)

(bridge 2:12-2:29)
|--------------------------------------------------------------------------|
|--------------------------------------------------------------------------|
|--------4-------5-------4---------------4-------5-------4-----------------|
|-5------------------------------5-------------------------------5-------4-|

(refren 2:30-3:00)

(pauza 3:00-3:08)

(refren 3:09-3:25)


Ascultati piesa! Eu asa cant bass-ul acestei piese!

Rock  

Pentru a putea vota sau adăuda comentarii, e nevoie să te autentifici sau înregistrezi .