Colinde – Trei crai de la rasarit (de Anton Pann)

(2 voturi)

Contribuție:  valpop


Trei crai de la rasarit
 Spre stea au calatorit
 S-au mers dupa cum citim,
 Pana la Ierusalim.
 Acolo dac-au ajuns,
 Steaua-n nori li s-a ascuns;
 Si le-a fost a se plimba,
 Prin oras a intreba.
 
Unde s-a nascut zicand,
 Un crai mare de curand?
 Iar Irod imparat
 Auzind s-a tulburat.
 Pe crai grabnic i-a chemat
 Si in taina i-a-ntrebat
 Ispitindu-i vru setos
 Ca sa afle pe Hristos.
 
Craii daca au plecat
 Steaua iar s-a aratat
 Si a mers pan-a statut
 Und-era pruncul nascut
 Si cu toti s-au bucurat
 Pe Hristos daca-au aflat
 Cu daruri s-au inchinat
 Ca unui Mare-mparat.

***************
 1. Tenor solo
***************


E |-------|-------|-------|-------|-------|-------|-------|
B |-------|-------|-------|-------|-------|-------|-------|
G |-------|-------|-------|-------|-------|-------|-------|
D |-------|-------|-------|-------|-------|-------|-------|
A |-------|-------|-------|-------|-------|-------|-------|
E |-------|-------|-------|-------|-------|-------|-------|


--------10-10-10----10------|
----------------------------|
----------------------------|
----------------------------|
----------------------------|
----------------------------|


--15----13----12----10----8--------7--8-----10------|
----------------------------------------------------|
----------------------------------------------------|
----------------------------------------------------|
----------------------------------------------------|
----------------------------------------------------|


--12----10----8-----7-----5--------3--7-----10------|
----------------------------------------------------|
----------------------------------------------------|
----------------------------------------------------|
----------------------------------------------------|
----------------------------------------------------|


--8-----7-----5-----------5--------3--5-----7-------|
----------------------------------------------------|
----------------------------------------------------|
----------------------------------------------------|
----------------------------------------------------|
----------------------------------------------------|


--8--------10-8--7--5-------|--10-8--7--5--3--2--3-------|
----------------------------|----------------------------|
----------------------------|----------------------------|
----------------------------|----------------------------|
----------------------------|----------------------------|
----------------------------|----------------------------|


--5-----10----8--7--5-------|--5--------5L---|--5-----3--5--5--7----------|
----------------------------|----------------|--------------------8-------|
----------------------------|----------------|----------------------------|
----------------------------|----------------|----------------------------|
----------------------------|----------------|----------------------------|
----------------------------|----------------|----------------------------|


--5--------3--5-----7-----8--------10-8-----7-------|
----------------------------------------------------|
----------------------------------------------------|
----------------------------------------------------|
----------------------------------------------------|
----------------------------------------------------|


--10----8--10-8-----7-----5-----7--8--7-----10------|
----------------------------------------------------|
----------------------------------------------------|
----------------------------------------------------|
----------------------------------------------------|
----------------------------------------------------|


--8--7--5-----5-------------||
----------------------------||
----------------------------||
----------------------------||
----------------------------||
----------------------------||

***************
 2. Sopran Alto
***************


E |--------3--5--5--7----------|
B |--------------------8-------|
G |----------------------------|
D |----------------------------|
A |----------------------------|
E |----------------------------|


--5--------3--5-----7-----8--------10-8-----7-------|
----------------------------------------------------|
----------------------------------------------------|
----------------------------------------------------|
----------------------------------------------------|
----------------------------------------------------|


--10----8--10-8-----7-----5-----7--8--7-----10------|
----------------------------------------------------|
----------------------------------------------------|
----------------------------------------------------|
----------------------------------------------------|
----------------------------------------------------|


--8--7--5-----5-------------|--5L---|--5L---|--5L---|--5L---|--5L---|--5L---|
----------------------------|-------|-------|-------|-------|-------|-------|
----------------------------|-------|-------|-------|-------|-------|-------|
----------------------------|-------|-------|-------|-------|-------|-------|
----------------------------|-------|-------|-------|-------|-------|-------|
----------------------------|-------|-------|-------|-------|-------|-------|


--5L---|--5L---|--5L---|--5L---|--5-----------3--5--5L------|
-------|-------|-------|-------|----------------------------|
-------|-------|-------|-------|----------------------------|
-------|-------|-------|-------|----------------------------|
-------|-------|-------|-------|----------------------------|
-------|-------|-------|-------|----------------------------|


--5-----3--5--5--7----------|
--------------------8-------|
----------------------------|
----------------------------|
----------------------------|
----------------------------|


--5--------3--5-----7-----8--------10-8-----7-------|
----------------------------------------------------|
----------------------------------------------------|
----------------------------------------------------|
----------------------------------------------------|
----------------------------------------------------|


--10----8--10-8-----7-----5-----7--8--7-----10------|
----------------------------------------------------|
----------------------------------------------------|
----------------------------------------------------|
----------------------------------------------------|
----------------------------------------------------|


--8--7--5-----5-------------||
----------------------------||
----------------------------||
----------------------------||
----------------------------||
----------------------------||

***************
 3. Tenor
***************

E |-------|-------|-------|--------------------12-10---|
B |--10L--|--10L--|--10L--|--10------------------------|
G |-------|-------|-------|----------------------------|
D |-------|-------|-------|----------------------------|
A |-------|-------|-------|----------------------------|
E |-------|-------|-------|----------------------------|


--10----8--10-12------------|
--------------------10-12---|
----------------------------|
----------------------------|
----------------------------|
----------------------------|


-----------10-8-----7-----10----8--10-8-----7-------|
--13------------------------------------------------|
----------------------------------------------------|
----------------------------------------------------|
----------------------------------------------------|
----------------------------------------------------|


--5-----7--8--7-----10----8-----7-----5-------------|--5--5L---|--5L---|--5L---|
----------------------------------------------------|----------|-------|-------|
----------------------------------------------------|----------|-------|-------|
----------------------------------------------------|----------|-------|-------|
----------------------------------------------------|----------|-------|-------|
----------------------------------------------------|----------|-------|-------|


--5L---|--5L---|--5L---|--5L---|--5--------5L---|--5-----3--5--5--7----------|
-------|-------|-------|-------|----------------|--------------------8-------|
-------|-------|-------|-------|----------------|----------------------------|
-------|-------|-------|-------|----------------|----------------------------|
-------|-------|-------|-------|----------------|----------------------------|
-------|-------|-------|-------|----------------|----------------------------|


--5--------3--5-----7-----8--------10-8-----7-------|
----------------------------------------------------|
----------------------------------------------------|
----------------------------------------------------|
----------------------------------------------------|
----------------------------------------------------|


--10----8--10-8-----7-----5-----7--8--7-----10------|
----------------------------------------------------|
----------------------------------------------------|
----------------------------------------------------|
----------------------------------------------------|
----------------------------------------------------|


--8--7--5-----5-------------||
----------------------------||
----------------------------||
----------------------------||
----------------------------||
----------------------------||

***************
 4. Bas
***************

E |-------|-------|-------|-------|-------|-------|-------|-------|-------|
B |-------|-------|-------|-------|-------|-------|-------|-------|-------|
G |--2L---|--2L---|--2L---|--2L---|--2L---|--2L---|--2L---|--2L---|--2L---|
D |-------|-------|-------|-------|-------|-------|-------|-------|-------|
A |--0L---|--0L---|--0L---|--0L---|--0L---|--0L---|--0L---|--0L---|--0L---|
E |-------|-------|-------|-------|-------|-------|-------|-------|-------|


-------|-------|-------|-------|-------|----------------|
-------|-------|-------|-------|-------|----------------|
--2L---|--2L---|--2L---|--2L---|--2L---|--2--------2L---|
-------|-------|-------|-------|-------|----------------|
--0L---|--0L---|--0L---|--0L---|--0L---|--0--------0L---|
-------|-------|-------|-------|-------|----------------|


----------------------------|
-----------------0----------|
--2-----0--2--2-----0-------|
----------------------------|
--0--------0--0--2----------|
--------3-----------3-------|


----------------------------------------------------|
--------------------0-----1--------3--1-----0-------|
--2--------0--2-------------------------------------|
-----------------------------------0----------------|
--0-----------0-----2-----3-----------3-----2-------|
-----------3----------------------------------------|


----------------------------------------------------|
--3-----1--3--1-----0-----------0--1--0-----3-------|
--------------------------2-------------------------|
--0--------0--------------------------------0-------|
--------3-----3-----2-----0-----2--3--2-------------|
----------------------------------------------------|


----------------------------||
--1--0----------------------||
--------2-----2-------------||
----------------------------||
--3--2--0-------------------||
----------------------------||

Colinde  Crăciun  

Pentru a putea vota sau adăuda comentarii, e nevoie să te autentifici sau înregistrezi .