Trooper – Scrisoare de adio

(1 voturi)

Contribuție:  SpiriFlaviu


Acordaj: Eb

Intro:

E:--------------------------------------------------------
B:--------------------------------------------------------
G:--9--11--12--11--9--11----------------9-----------------
D:----------------------------12---12-------9~~~~~--------
A:--------------------------------------------------------
E:--------------------------------------------------------

E:--------------------------------------------------------
B:--------------------------------------------------------
G:--9--11--12--11--9--11----12---11~~~~-------------------
D:--------------------------------------------------------
A:--------------------------------------------------------
E:--------------------------------------------------------

E:--------------------------------------------------------
B:--------------------------------------------------------
G:--9--11--12--11--9--12----------------------------------
D:--------------------------12--12--10--9-----------------
A:--------------------------------------------------------
E:--------------------------------------------------------



E:--------------------------------------------------------
B:--------------------------------------------------------
G:--9--11--12--14--16--14~~~~~~~~~~\\slide-up-------------
D:--------------------------------------------------------
A:--------------------------------------------------------
E:--------------------------------------------------------


Vers:


E:-----------------|------------------|-----------------|-----------------|
B:-----------------|------------------|-----------------|-----------------|
G:-----9---9---9---|-----9--------7---|-----5---5---5---|-----5-------4---|
D:---9---9---9---9-|---9---9----7---7-|---5---5---5---5-|---5---5---4---4-|
A:-7---------------|-7--------5-------|-3---------------|-3-------2-------|
E:-----------------|------------------|-----------------|-----------------|

E:------------------|------------------|-----------------|------------------|
B:------------------|------------------|-----------------|------------------|
G:------2---2---2---|-----2--------5---|-----7---7---7---|-----7---7---7----|
D:----2---2---2---2-|---2---2----5---5-|---7---7---7---7-|---7---7---7---7--|
A:--0---------------|-0--------3-------|-5---------------|-5----------------|
E:------------------|------------------|-----------------|------------------|

Riff A
E:------------------|------------------|--------------------|-----------------|
B:------------------|------------------|--------------------|-----------------|
G:--9-x-x-9-x-x-9-x-|--7-x-x-7-x-x-7-x-|-12-x-x-12-x-x-12-x-|-5-x-x-5-x-x-5-x-|
D:--9-x-x-9-x-x-9-x-|--7-x-x-7-x-x-7-x-|-12-x-x-10-x-x-12-x-|-5-x-x-5-x-x-5-x-|
A:--7-x-x-7-x-x-7-x-|--5-x-x-5-x-x-5-x-|-10-x-x-10-x-x-10-x-|-3-x-x-3-x-x-3-x-|
E:------------------|------------------|--------------------|-----------------|

E:------------------|------------------|-----------------|-----------------|
B:------------------|------------------|-----------------|-----------------|
G:--9-x-x-9-x-x-9-x-|--7-x-x-7-x-x-7-x-|-2-x-x-2-x-x-2-x-|-2-x-x-2-2-2-2-2-|
D:--9-x-x-9-x-x-9-x-|--7-x-x-7-x-x-7-x-|-2-x-x-0-x-x-2-x-|-2-x-x-2-2-2-2-2-|
A:--7-x-x-7-x-x-7-x-|--5-x-x-5-x-x-5-x-|-0-x-x-0-x-x-0-x-|-0-x-x-0-0-0-0-0-|
E:------------------|------------------|-----------------|-----------------|



Intro x2

Vers x2:
	A mai trecut o zi, nimic nu e la fel
	Si timpul ne tot ia cu el
	Ma uit la cerul rosu, se lasa noaptea grea
	De mult n-am mai simtit asa
 
Riff A:
	Vin anotimpuri si trec peste chipul meu
	Viata se schimba mereu

Refren(powerchords):
	
	      C               G        E             D
	Daca timpul s-ar sfârsi, fara sa îti pot vorbi
	          C               G                D
	Vreau sa stii, oriunde ai fi, ca te-am iubit
       	       C           G        E            D
	Daca tot ar disparea, fara sa te pot vedea
    	      	   C               G               D
	Vreau sa stii, oriunde ai fi, ca te-am iubit

 
Vers x2:
	Cuvântul nerostit, din sufletul pustiu
	Poate este prea târziu
	Nu vreau sa-ti spun adio, eu stiu ca într-o zi
	În ochi din nou ne vom privi

Riff A
 
	Vin anotimpuri si trec peste chipul meu
	Viata se schimba mereu

sOLO
	Intro 
	Intro cu o octava mai sus
	Puteti improviza in G major.
 
	
Refren(powerchords):

	
	      C               G        E             D    |
	Daca timpul s-ar sfârsi, fara sa îti pot vorbi    |
	          C               G                D      |
	Vreau sa stii, oriunde ai fi, ca te-am iubit      |   x 2 
       	       C           G        E            D        |
	Daca tot ar disparea, fara sa te pot vedea        |
    	      	   C               G               D      |
	Vreau sa stii, oriunde ai fi, ca te-am iubit      |



Refren(powerchords, cu 3 semitonuri mai sus decat normal)
	
	       D#             A#       G            F 
	Daca timpul s-ar sfârsi, fara sa îti pot vorbi
	          D#               A#              F
	Vreau sa stii, oriunde ai fi, ca te-am iubit
       	       D#          A#       G            F
	Daca tot ar disparea, fara sa te pot vedea
    	      	   D#             A#               F
	Vreau sa stii, oriunde ai fi, ca te-am iubit


Outro:


E:---------------------------------------------------
B:---------------------------------------------------
G:-------15----14--12--10--12--12~~~~~~~~~~~---------

Rock  

Comentarii

Pentru a putea vota sau adăuda comentarii, e nevoie să te autentifici sau înregistrezi .