Daniel Iancu – Mi-a batut dealu' la poarta (ciupitura + explicatie)

(1 voturi)

Contribuție:  Mr. C


Pentru a fi mai usor de inteles, am notat anumite lucruri care va vor fi de folos... sper.
In primul rand, folosind (*) am notat cei patru timpi din masura pentru ca voi sa 
intelegeti cam cum ar veni ciupitura, ascultati melodia si o sa intelegeti ce am vrut 
sa zic.
Deasemenea, simbolul (^) inseamna ca respectiva nota trebuie ciupita folosind policele
(a.k.a. degetul mare)..

Pe strofa, in afara de timpul doi pe care il lasati sa se auda, trebuie sa faceti pm 
(palm muting)..

Refrenul nu are o bataia/ciupitura anume, nici el nu canta de doua ori la fel, asa 
ca.... Fiti creativi!!! :D
in cazul in care aveti lipsa de inspiratie puteti sa folositi clasica bataie jjs sjs 

Intro:Am Am E Am

Strofa:

 Am                    Am/E     E                             

  *     *         *     *       *     *          *     *
  ^          ^    ^         x2  ^          ^           ^    ^    
-----------------------------|-----------------------------------|
--------1---------------1----|--------0----------0---------------|
--------2---------2-----2----|--------1----------1---------------|
--------2----2----------2----|--------2----------2---------------|
--0--------------------------|--2----------2-----------3----2----|
------------------------0----|-----------------------------------|                                    
Oricare dintre...      are la cap...                   O pasarica...

                     

  *     *         *     *
  ^          ^    ^  
-----------------------------|| 
--------1---------------1----||
--------2---------2-----2----|| 
--------2----2----------2----||
--0--------------------------||
------------------------0----|| 


Ciupitura se repeta pe toate versurile din strofa....

Refren:

                    
Mi-a batut dealu' la poarta,
                     
Pietricele-mi bat in geam,
                 
De ce Doamne asa o soarta,
                     
Tu mi-ai downloadat sa am ?

                
Mi-a luat casa-n viteza,
              
Ma uit si raman perplex
          
Marioara pe dormeza,
                 
Sta in fund si cere sex.   

etc....                


P.S. Am sa revin si cu partea de solistica... 
daca aveti nelamuriri nu ezitati sa intrebati, va ajut cu cea mai mare placere!
Fiind prima mea tabulatura, as aprecia sa stiu parerea voastra... Asa ca va rog comentati/votati. 
Multumesc!!!

Comentarii

Pentru a putea vota sau adăuda comentarii, e nevoie să te autentifici sau înregistrezi .

Acorduri