Alternosfera – Asta vara

(35 voturi)

Contribuție:  anonim190


Tema:    


Intro:
     Gm                       D                        
e|-------------------------|------------------------|
a|-------------------------|------------------------|
d|-------------------------|------------------------|
g|-3-----3-----3-----3-----|-2-----2-----2-----2----|
b|----3-----3-----3-----3--|----3-----3-----3-----3-|
e|---3-----3-----3-----3---|---2-----2-----2-----2--|

    F                         D
e|------------------------|------------------------|
a|------------------------|------------------------|
d|------------------------|------------------------|
g|-2-----2-----2-----2----|-2-----2-----2-----2----|
b|----1-----1-----1-----1-|----3-----3-----3-----3-|
e|---1-----1-----1-----1--|---2-----2-----2-----2--|


{Gm D F D  } x2 

                             
Iar mi-e murdara de cerneala calimara 
                            
Sufletul mi-l spala o ultima octava 
                        
In ochii tai nu deslusesc taine 
                                  
Esti in palma mea fara haine 
              
Unde tu,tu ai sapat adinc 
                    
Ai sapat mormint dar tu,TU 

{Gm D F D  } x2

                         
A cita oara mi-e murdara calimara 
                 
Intr-un vers multa povara 
                 
Am pictat eu asta vara 
                  
Imi evit in ape stele
                  
In lumina lor sub ele 
              
Eu aud cum din adincuri 
                    
Vocea ei da | din morminturi 

{Gm D F D  } x2 (doar chiatara)

Ai trecut prin fum si urlet 
Ai plecat cu trup si suflet 
Uite asa mi-am plins cerneala 
Uite ce-a fost asta vara.

{Outro}

Comentarii

Pentru a putea vota sau adăuda comentarii, e nevoie să te autentifici sau înregistrezi .

Acorduri