Gândul Mâţei – Proba credintei

(12 voturi)

Contribuție:  anonim196


e---------------------------------------------|
B---------------------------------------------|
G---------------------------------------------|
D--------0-------------0--------0----------0--|
A-----5-----5------5---------4-----4-----4----|
E--7------------7----------5-----------5------|

e-------------------------------------------
B--------------------------------3----------
G---------------------------0-------0-------
D-------0------------0------0----------0----
A-----2----2-------2--------2---------------
E---3------------3----------3---------------
acest solo se cântă pe parcursul întregului cântec...

Imaginea ta,
Ce demult o păstrez.
De-atâta privire
Aproape s-a şters.

     R1:
     Distanţa şi timpul
     Se joacă cu noi...
     E proba credinţei
     Pentru-amândoi.

          R2:
          Caut iar 
          Chipul tău în priviri,
          Ai plecat
          şi-n ochii ardenţi
          Mi-ai lăsat
          Năluciri...

Sarcastică probă 
A unui destin
Cu scumpă valoare
Plătita din plin

R1
R2

şi oricât de departe 
N-ar fi
Acea zi...
Te aştept (te astept)

Pentru a putea vota sau adăuda comentarii, e nevoie să te autentifici sau înregistrezi .