Ada Milea – Armata (Rodica)

Contribuție:  appcronos


Acorduri:    
Intro: Am

Cu palm mute
   Am
E|--x-|:--x---x-------x---x---x-------x-:|
A|-0x-|:-0x--0x--0-0-0x--0x--0x--0-0-0x-:|
D|-2x-|:-2x--2x--2-0-2x--2x--2x--2-0-2x-:|
G|-2x-|:-2x--2x--2-0-2x--2x--2x--2-0-2x-:|
B|-1x-|:-1x--1x--1-0-1x--1x--1x--1-0-1x-:|
e|-0x-|:-0x--0x--0-0-0x--0x--0x--0-0-0x-:| 
Se repeta pe into si primele 2 versuri din prima strofa 
(|: bucata care se repeta efectiv :|)

Am
Armata e in strada.
Am
E pericol mare:

   C       G       C               Am
E|--x---x--3x--3x---x---x---x---------|
A|-3x--3x--2x--2x--3x--3x--3x--3-2-0--|
D|-2x--2x--0x--0x--2x--2x--2x------2--|
G|-0x--0x--0x--0x--0x--0x--0x------2--|
B|-1x--1x--0x--0x--1x--1x--0x------1--|
e|-0x- 0x--3x--3x--0x- 0x--1x------0--|
Se canta pe urmatoarele 2 versuri dpa care se face trecerea pe
Am - E unde pot fi folosite diverse variante de ciupitura sau strum.

C                 G
Da cu tunu'n muncitoare,
                 C
Dar Rodica e-n picioare!

Am                      E
Cine-a spus ca n-avem istorie?
Am                      E
Cine-a spus ca n-avem memorie?
C          G
Rodica e dovada.
                           C
S-o jupuim si s-o facem drapel!

Am                 E
Asa a fost intotdeauna
Am                  E
Cand rodicile erau …una.
C                         G
Un singur gand, un singur scop,
                         C
Un singur vis, un singur tel:
                            Am-E-Am-E-C-G-C
S-o jupuim si s-o facem dra…aaaaaaa..

Am                    E
Rodica e mama tuturor fiilor,
              Am
Fiica tuturor mamelor,
                  E
Gospodina tuturor oamenilor,
                   Am
Omul toturor gospodinelor.
Am                         E
S-o jupuim si s-o facem drapel… x4

Am                           E
Rodica e salvarea tuturor bolnavilor,
                   Am
Bolnava tuturor salvarilor,
                E
Bucuria tuturor pruncilor,
                    Am
Pruncul tuturor bucuriilor.
Am                          E
S-o jupuim si s-o facem drapel… x4

C     G                    C
Prin ea putem avea acelasi tel:
                           Am-E-Am-E-C-G-C
S-o jupuim si s-o facem drapel!

Folk  

Pentru a putea vota sau adăuda comentarii, e nevoie să te autentifici sau înregistrezi .

Acorduri