Pistol cu capse – Timpul trece

(16 voturi)

Contribuție:  ghit razvan


Chitara 1  
                Intro                Strofa                   Refren
                         x8
e|---------------------------------------------------------------------------|
B|-----------8-8-8-----------------------------------------------------------|
G|---5--4-5---------7-4---------------5------7-----9----------5--------------|
D|------------------------------------x------x-----x----------5--5--7--3--5--|
A|------------------------------------3------5-----7----------3--5--7--3--5--|
E|---------------------------------------------------------------3--5--1--3--|



Chitara 2  
                Strofa                                      Refren

e|----------------------------------------------------------------------------------|
B|----------------------------------------------------------------------------------|
G|-------------5----------------------------------------------5---------------------|
D|-------------5----5----7---3---5----------------------------5--5--7---3---5-------|
A|-------------3----5----7---3---5----------------------------3--5--7---3---5-------|
E|------------------3----5---1---3-------------------------------3--5---1---3-------|

Rock  

Ultima actualizare:  03.02.2009

Pentru a putea vota sau adăuda comentarii, e nevoie să te autentifici sau înregistrezi .