Morandi – N3xt

Contribuție:  Serjioo


Chitara solo(sau orga)

|---------------------------------------------|-
|---------------------------------------------|-
|-------------3b4-------3b4-------3b4-----5~--|-
|--0-3-4-5--5------5--5------5--5------5------|-
|---------------------------------------------|-X2
|---------------------------------------------|-
(Asta e pt intro si vers)

|-----------|-------------------------------------------
|-----------|-----------------3--------------3---3------
|-----------|-3-5---------3-5--------3-5-------5---5-3--
|--0-3-4-5-5|-----5---5-5-------5--5-----5-------------5
|-----------|------------------------------------------- X2(a doua oara fara -1-)
|-----------|-------------------------------------------
   -1-

(Asta e pt intro si refren)

|---------------------------------------------|-
|---------------------------------------------|-
|-------------3b4-------3b4-------3b4-----5~--|-
|--0-3-4-5--5------5--5------5--5------5------|-
|---------------------------------------------|-X2
|---------------------------------------------|-


|-----------------------1513--10-10/8---
|-----------11-13-----------------------8
|--12-12-12-------12-12------------------
|----------------------------------------
|----------------------------------------
|----------------------------------------



|-----------------------15-13------------------
|-----------11-13-------------15----11-13-11---
|--12-12-12-------12-12----------12----------12
|----------------------------------------------
|----------------------------------------------
|----------------------------------------------

Soloul de clape trecut pe chitara


Chitara Ritm face powerchorduri pe G5 F5 D#5 si C5 si bassul merge pe acelasi calapod

Pop  Pop-Rock  

Pentru a putea vota sau adăuda comentarii, e nevoie să te autentifici sau înregistrezi .