Connect-R – Da-te-n Dragostea Mea (Explicit + clip Bataie)

(1 voturi)

Contribuție:  pradan


Bataie: http://youtu.be/GufmCYW12Tg - imi pare rau, videoclipul a fost reportat ca violand legile copyrightului, mor de ras cand vad de astea.
Comentariile constructive sunt bine primite oricand!
Spor si distractie!

Acorduri:
    Em       Bm       D        Am
|---7----|---7----|---5----|---5----|
|---8----|---7----|---7----|---5----|
|---9----|---7----|---7----|---5----|
|---9----|---5----|---7----|---7----|
|---7----|---5----|---5----|---7----|
|---7----|---7----|---5----|---5----|

Interpretare:
1. Vers
    Em                Bm                D                 Am
|-------7----7----|-------7----7----|-------5----5----|-------5---5----|
|-------8----8----|-------7----7----|-------7----7----|-------5---5----|
|-------9----9----|-------7----7----|-------7----7----|-------5---5----|
|-----------------|-----------------|-----------------|----------------|
|---7-------------|-----------------|---5-------------|----------------|
|-----------------|---7-------------|-----------------|---5------------|

2.Bridge
    Em             Bm            D             Am
|-----7--------|-----7-------|-----5-------|-----5-------|
|-------8------|-------7-----|-------7-----|-------5-----|
|---------9----|---------7---|---------7---|---------5---|
|--------------|-------------|-------------|-------------|
|---7----------|-------------|---5---------|-------------|
|--------------|---7---------|-------------|---5---------|

3. Interludiu
- cel mai bine se vede in clip impreuna cu cateva artificii ce sunt prezente si in vers si bridge.


Vers:
    Em              Bm
Am: patru camere si daca vrei
D                         Am
Aici chiria mea nu se pla-teste-n lei
           Em                     Bm 
Si nici in euro ca nu prea ma des-curc cu ei
   D                    Am 
Pu-tina dragoste si e o-k
Em             Bm
    Si printre inimi ma plimb
	    D
Si caut una pentru mine
        Am
Ca s-o dau p-a mea la schimb
Em            Bm
Oh, da’ parca nu mai mai am timp
           D                     Am
Si nici cu-vinte sa spun ceea ce simt

Bridge:
     Em                   Bm
Tu u-raste-ma cat poti de tare
D               Am
   Eu te voi iu-bi
        Em                Bm
Fiindca tot ce aud in tim-pane
D              Am
   E vocea ini-mii

	Refren:   
		Em        Bm
		  Daca ma vei supara
		D             Am
 		  Mai da-te-n dragostea mea
		Em           Bm
		  Stii ca te voi injura
		D             Am  
		  Mai da-te-n dragostea mea
		Em         Bm
		  Eu nu ma pot enerva
		D             Am 
		  Ca stiu cum e inima
		Em          Bm  
		  Asa ca-ti mai zic ceva...
		D             Am
		  Mai da-te-n dragostea mea

Vers:
Imi spunea cineva
Ca inima e prea complicata
Sa nu-mi bat capul cu ea
Ca n-o s-o-nteleg niciodata
Fiindca asa-i dragostea
Noptile-s furtunoase,
Prea furtunoase,
Da
Desi te doare doar ea,
Iti face zile frumoase, zile frumoase
Da

Interludiu:
Em      Bm
Da-r-ar dragostea-n voi
     D                  Am
Daca da pe la voi, dati si pe la noi
    Em
C-o punem in foi,
    Bm
O-m-partim la doi
       D                        Am
Mai ra-mane un pic sa dam si-na-poi
Em           Bm
Cantam Corin-teni
              D            Am
Ca fara drago-ste am fi ni-meni
       Em             Bm
Amfibi-eni si ambi a-vem
D                   Am
Inimi care bat in a-celasi BPM

Bridge:
Tu uraste-ma cat poti de tare
Eu te voi iubi
Fiindca tot ce aud in timpane
E vocea inimii

Refren:
Daca ma vei supara
Mai da-te-n dragostea mea
Sti ca te voi injura
Mai da-te-n dragostea mea
Eu nu ma pot enerva
Ca stiu cum e inima
Asa ca-ti mai zic ceva
Mai da-te-n dragostea mea
Mai da-te-n dragostea mea
Mai da-te-n dragostea mea
C-asa e inima mea
Vrea inima ta inima mea
Asa e inima
C-asa e inima mea
Vrea inima ta inima mea
Asa e inima
C-asa e inima mea
Vrea inima ta inima mea
Asa e inima
C-asa e inima mea
Mai da-te-n dragostea mea
Asa e inima
C-asa e inima mea
Maï da-te-n dragostea mea.

Pop  

Ultima actualizare:  09.05.2016

Pentru a putea vota sau adăuda comentarii, e nevoie să te autentifici sau înregistrezi .