Paraziții – Vrei bani (17)

Contribuție:  Serjioo


Intro

E|--10v--8--10/13--12--10--8--10v--
B|---------------------------------
G|---------------------------------
D|---------------------------------
A|---------------------------------
E|---------------------------------

 
Vrei bani , banii n-o sa cada degeaba din cer!
               
 Vrei prieteni , invata sa vorbesti sincer 
 D5
 Vrei respect , invata sa respecti
           F5
 Sa oferi , tre sa meriti tot ce ai
 A5 
 Sa castigi , nu sa ceri
 Vrei bani , banii n-o sa cada degeaba din cer
 Vrei prieteni , invata sa vorbesti sincer 
 Vrei respect , invata sa respecti
 Sa oferi , tre sa meriti tot ce ai 
 Sa castigi , nu sa ceri


Astea sunt lickurile pentru prima strofa, in ordinea asta, 
totodata fiind valabile si pentru strofa 2 doar ca in alta ordine
(usor de dedus). Soloul intr-un later edit poate.

E|--3/5--3----3p1------
B|-----------------3v-- X2
G|---------------------
D|---------------------
A|---------------------
E|---------------------

E|--8--8v--
B|---------
G|---------
D|--------- x2
A|---------
E|---------

E|----------
B|----------
G|--7v--/0--
D|----------
A|----------
E|----------

E|-------------------
B|-------------------
G|--7--7p8r7--5------
D|---------------7v--
A|-------------------
E|-------------------

E|---------------------------------
B|--15v------13/15--15/17--15/18v--
G|---------------------------------
D|---------------------------------
A|---------------------------------
E|---------------------------------

E|------------
B|------------
G|--7-7v--/0--
D|------------
A|------------
E|------------


E|--22--15b17r15--13--15--13v--
B|-----------------------------
G|-----------------------------
D|-----------------------------
A|-----------------------------
E|-----------------------------

Hip-hop  

Ultima actualizare:  29.04.2018

Pentru a putea vota sau adăuda comentarii, e nevoie să te autentifici sau înregistrezi .

Acorduri