Bucovina – Straja (bass tab)

Contribuție:  Szakacs


Bucovina - Straja
Bass Tab creeat "dupa ureche"

  (0:14) - (0:48)
G|--------------------------------------------------------------------
D|----22----22----22----22---55---55---77---77-----22----22----22----2
A|---2-----2-----2-----2----5----5----7----7------2-----2-----2----2--
E|--0-----0-----0-----0----3----3----5----5------0-----0------0-------

  (0:48) - (1:27)
G|--------------------------------------------------------------------
D|--------------------------------------------------------------------
A|--------------------------------------------------------------------
E|0-0000-0000-0000-000-3-3333-3333-3333-333-5-5555-5555-3-3333-3333-0-


  (1:27) - (3:20)
G|--------------------------------------------------------------------
D|--------------------------------------------------------------------
A|--------------------------------------------------------------------
E|0000000000000000000000-3333333333333333333333-5555555555555-00000000

  (3:20) - (3:40) acelasi lucru ca de la 1:27 la 3:20 dar grupate cate 3 ... tripleti

  (3:40) - (4:48) acelasi lucru ca de la 0:48 la 1:27 doar ca notele sunt cantate pe rand, nu incontinuu 

  (4:48) - (5:51)

G|--------------------------------------------------------------------
D|----22----22----22----22---55---55---77---77-----22----22----22----2
A|---2-----2-----2-----2----5----5----7----7------2-----2-----2----2--
E|--0-----0-----0-----0----3----3----5----5------0-----0------0-------

Metal  

Pentru a putea vota sau adăuda comentarii, e nevoie să te autentifici sau înregistrezi .