Nivelu' 4 – Romania

(10 voturi)

Contribuție:  alecz93


Intro:
E |-5-5-5-5--8--7--8--5-5-5-5-----5-5-5-5--8--7--8--------------------|
A |---------------------------7-5-------------------7-7-7-7--8--7--8--|
D |-------------------------------------------------------------------|
G |-------------------------------------------------------------------|
B |-------------------------------------------------------------------|
e |-------------------------------------------------------------------|


Vers:
E |-5-5-5-5-5-5-5-5-----------------5-5-5-5-5-5-5-5-0-0-0-0-0-0-0-0---|
A |-7-7-7-7-7-7-7-7-3-3-3-3-3-3-3-3-7-7-7-7-7-7-7-7-2-2-2-2-2-2-2-2---|
D |-7-7-7-7-7-7-7-7-5-5-5-5-5-5-5-5-7-7-7-7-7-7-7-7-2-2-2-2-2-2-2-2---|
G |-----------------5-5-5-5-5-5-5-5-----------------------------------|
B |-------------------------------------------------------------------|
e |-------------------------------------------------------------------|

Interludiu:
E |------------------------8-10-8-------------------------------------|
A |-7----8-7-8-7--8-7-8-7---------8-10--------------------------------|
D |-------------------------------------------------------------------|
G |-------------------------------------------------------------------|
B |-------------------------------------------------------------------|
e |-------------------------------------------------------------------|

Refren:
E |-5-5-5-5-5-5-5-5-----------------3-3-3-3-3-3-3-3-------------------|
A |-7-7-7-7-7-7-7-7-3-3-3-3-3-3-3-3-5-5-5-5-5-5-5-5-3-3-3-3-3-3-3-3---|
D |-7-7-7-7-7-7-7-7-5-5-5-5-5-5-5-5-5-5-5-5-5-5-5-5-5-5-5-5-5-5-5-5---|
G |-----------------5-5-5-5-5-5-5-5-----------------5-5-5-5-5-5-5-5---|
B |-------------------------------------------------------------------|
e |-------------------------------------------------------------------|

Pentru a putea vota sau adăuda comentarii, e nevoie să te autentifici sau înregistrezi .