Hi-Q – Soare

Contribuție:  Laurentiu Nistor


Intro si strofa:
-----------------------------------------------------------------------------
-------------------3---------3------------------------------3---------3------
-----------0-----------0---------0---------------0--------------0---------0--
----------------0----------------------------4---------4---------------------
----------------------------------------5------------------------------------
-3(semi-mut)-----------------------------------------------------------------
 
 
-----------------------------------------------------------------------------
--------------------1-----------0--------------------------------------------
-----------0------------0-----------0---------2-------------0----------------
------2--------2-------------2----------2---------2-------------2------------
-3-------------------------------------------------------3-------------3-----
-----------------------------------------------------------------------------
 
---------------------------------------------------------
----------------3----------------------------------------
---------0------0---0------5---------4------------------- 5 de la coborare il puteti face 
-----4------4----------4------4---------4--------5/7-5--   cu degetul mic iar urmatorul 
-5--------------------------------5--------5-------------       4 cu aratatorul
---------------------------------------------------------
 
Unde canta ea folosesc acordurile

                                                  
E soare din nou, in sufletul meu / Iar cerul e mai aproape de mine
                                  
Cand ma ridic usor pe varfuri si te sarut
                                                  
E soare din nou, in sufletul meu / Iar cerul e mai aproape de mine
                                          
Cand ma ridici in brate si timpul ne leagana bland

Bataia nu sunt sigur cum e dar eu folosesc asta si suna foarte bine:
(C) j--j--s-s-sj-js(ultimul s liber)(Em)j--j-j(D)ss-sj-js
(Am)j--j--s-s-sj-js(ultimul s liber)(D/G) j--j-j(Bm)s-sj-sjs(a doua oara lipseste 'sjs')

Si mai e partea :
C                  G   Bm                Am
Na,na,na, na,na,na,na, na,na,na, na,na,na,na
Am         D             Em      G
In fiecare clipa esti in gandul meu          } Bis

(C)j--j-j(G)s-sj--sjs(Bm)j--j-j(Am) s-sj--sjs
(Am)j--j(D)s-s-sj-js(Em) j--j-j(G)s-sj   (Nu sunt sigur daca e asa dar suna acceptabil)
 
In principiu bataia sa fie calma si sa va sune voua bine. 

Sper sa va iasa  :D

Pop-Rock  

Pentru a putea vota sau adăuda comentarii, e nevoie să te autentifici sau înregistrezi .

Acorduri