Les elephants bizarres – Nu ma opri

(2 voturi)

Contribuție:  Natea


Intro ( pian ) improvizat pt chitara:

p.s. Unele note lipsesc desigur. Va sugerez sa improvizati note dupa ureche

E: ----------------------------- 
B: ----11-------11-------11-----
G: ------12-------12--------12--
D: --------13-------13----------
A: -----------------------------
E: -----------------------------

E: -----------------------------
B: ----9--------9--------9------
G: -----10-------10--------10---
D: -------10-------10-----------
A: -----------------------------
E: -----------------------------

E: -----------------------------
B: ------6-----6------8-6---6---
G: ----8------8-----------8-----
D: --------------8--------------
A: -----------------------------
E: -----------------------------

Chitara 1:

E: ----11----13-15-13-11-11---13-15-13---------13-15-13---------
B: ------------------------------------13-13------------11-11---
G: -------------------------------------------------------------
D: -------------------------------------------------------------
A: -------------------------------------------------------------
E: -------------------------------------------------------------

E: --------------------11--11--11-11-10-11----11-11-11-10-13-15-
B: -11h->13-15-13-11-----------------------11-------------------
G: -------------------------------------------------------------
D: -------------------------------------------------------------
A: -------------------------------------------------------------
E: -------------------------------------------------------------

E: -11--11--11-11-10-11----11--11--11-11-15-13-11--11-----------
B: ---------------------11--------------------------------------
G: -------------------------------------------------------------
D: -------------------------------------------------------------
A: -------------------------------------------------------------
E: -------------------------------------------------------------

Strofa si refren acorduri:

       D#            Fm
E: -----6-------------8-----------
B: -----8-------------9-----------
G: -----8-------------10----------
D: -----8-------------10----------
A: -----6-------------8-----------
E: -----6-------------8-----------

Strofa 1:

  D#
Imi las timpul, pot 
  Fm
Plutesc spre alt loc 
  D#
Cunosc un alt cer 
  Fm
Visez, plutesc si sper
  D#
Intalnesc privirea ta 
  Fm
O caut intr-a mea 
  D#
Renasc dintr-un nor 
  Fm
Privesc, plutesc, cobor. 


Refren: (2x) 
  D#
Ma-nalt cu visele lor, vad fericirea tuturor
  Fm
Nu ma opri 
  D#
Vad prin peretele gol viitorul tuturor
  Fm
Nu ma trezi.

-// Chitara 1 //-
 

Strofa 2:
  D#
Ma simt ca-ntr-un vis 
  Fm
Purtat de mana ta
  D#
Cand soarele s-a stins 
  Fm
Esti libertatea mea 
  D#
Te inalti catre nori 
  Fm
Plutind ne trec fiori 
  D#
Te port spre un vis 
  Fm
Uitat, de neatins. 


Refren (2x)

Ma-nalt cu visele lor (8x)

Pop-Rock  

Pentru a putea vota sau adăuda comentarii, e nevoie să te autentifici sau înregistrezi .