FurioSnails – Derulează-mă

(4 voturi)

Contribuție:  AeroZepp


În original se aud bine 2 ghitare, eu am facut o versune de ritm cu idei din ambele.

Intro(Se joacă în ritm de funk(credcă) cu multe mute-uri(în cîntec se simte)):
        G           D         Em
e----------------------------------|
B--12-12-12-12---7-7-7-7---8-8-8-8-|
G--12-12-12-12---7-7-7-7---9-9-9-9-| x4 
D--12-12-12-12---7-7-7-7---9-9-9-9-|
A--10-10-10-10---5-5-5-5---7-7-7-7-|
E----------------------------------|

Vers:
e-----------2--------7-----------------------2--------7--|
B--3--------3--------8--------------3--------3--------8--|
G--4--------4--------9----9p7-9p7---4--------4--------9--|
D--5--------4--------9------------8s5--------4--------9--|
A--5--------2--------7--------------5--------2--------7--|
E--3--------------------------------3--------------------|
   G        Bm       Em             G        Bm       Em

G                Bm         Em
Nu eşti tu, nici soarele nu e,
G                Bm       Em     
Deşteptătorul îmi omoară dimineţile.
G                 Bm            Em
Ca într-un film de scurt metraj ratat
      G         Bm                Em
Vreau să fiu altceva, dar simt că iar m-au derulat.

e-----------2--------7--|
B--3--------3--------8--|
G--4--------4--------9--| x2 se cintă în același ritm ca și intro
D--5--------4--------9--|
A--5--------2--------7--|
E--3--------------------|
   G        Bm       Em                                             
                                                                    |
(Acest vers se cînt la fel ca și primul)
Alerg, ajung exact la făr-un sfert,                                 |
Toţi spun sunt bun şi într-un an voi avansa, e cert.
Ca într-un film de scurt metraj ratat                               |
Vreau să fiu altceva, dar simt că iar m-au derulat.
                                                                    |

(Pentru următorul vers)                                             |
e-------------------------------|                                   
B--5--------5--------3-------7--|                                   |
G--5--------5--------4-------7--| x2                                    x 2 
D--5--------7--------5-------7--|                                    /
A--3--------7--------5-------5--|                                   |
E-----------5--------3----------|
   C        Am       G       D                                      |
  
C               Am                                                  |
Totul va fi bine, când vei creşte mare,
G             D                                                     |
Vei avea soţie, câine şi salariu.
C               Am                                                  |  
Totul va fi bine, când vei creşte mare,
G             D D D D                                               |
Vei avea soţie, casă şi salariu.
Derulează-mă.                                                       |
 
e-----------2--------7--|                                           |
B--3--------3--------8--|
G--4--------4--------9--| x2 se cintă în același ritm ca și intro   |
D--5--------4--------9--|
A--5--------2--------7--|                                           |
E--3--------------------|                
   G        Bm       Em                                             /

Ritmul pentru Solo este: 
   Am        Bm        C       D
e--5-5--------7-7--------8--8--------10--|                                   
B--5-5--------7-7--------8--8--------10--|                                  
G--5-5--------7-7--------9--9--------11--| x2                                
D--7-7--------9-9--------10-10-------12--|                                    
A--7-7--------9-9--------10-10-------12--|                                   
E--5-5--------7-7--------8--8--------10--|

Rock  

Ultima actualizare:  09.12.2014

Comentarii

Pentru a putea vota sau adăuda comentarii, e nevoie să te autentifici sau înregistrezi .