3 Sud Est - Alături de îngeri

Intro (de 2 ori):

     Am7                                          Em
E||--------------------3--|--------------------------|------------------0----|
B||------------1----------|--------------------------|----------0------------|
G||-------0---------0-----|--------0--2--0-----0-----|-----0---------0-------|
D||--2--------------------|-----------------4-----2--|-----------------------|
A||-----------------------|--------------------------|-----------------------|
E||-----------------------|--------------------------|-----------------------|


-------0-----------------|| 
----------0-----0--------||
-------------0-----------||
-------------------------||
-------------------------||
-------------------------||

             Am7
Te rog nu mai plânge
             Em
Cred că-mi ajunge
                                   Am7
şi simt cum durerea mea zboară spre nori

Primesc de la tine 
Doar lacrimi senine
Le şterg cu aceeaşi durere ce-o port

Te rog nu mai plânge
Gândeşte-te bine
În ceruri pe tine te voi aştepta

Cu-o floare albastră 
Să-ţi amintească
De clipele-n care ne-am sărutat

          C
Când vei suferi 
            Em
Cu tine voi fi
             C               Em
şi lacrimi îţi voi trimite de sus
               C                Em
Eşti tot ce-am iubit şi ce voi iubi
    C                Em
Alături de îngeri de-acum

Nu am nimic în afară de tine
Eşti tot ce în urmă eu mai pot lăsa
Tu pe pământ eşti îngerul meu
De-acum doar în ceruri mai poţi fi a mea

Transpunerile de pe acest site reprezintă viziunea personală a utilizatorilor asupra pieselor.
a8d81d6bd5fb9dd0ca7eb00158201734
f7e9d1d2-ebba-44ba-8198-e810bddf71a6