Akcent - Suflet pereche

    Intro
      
                   E                       A                B
E:----------------------------------------------------------------------|
B:--------------9------------9------------------------------------------|
G:-----------9------------9-------------------6---------------8---------|
D:--------9------------9------------------7----------------9------------|
A:----7------------7-------------------7---------------9----------------|
E:---------------------------------5---------------7--------------------|

                      C#m                                 A                                B
E:----------------------------------------------------------------------|
B:---------------5------------------------------------------------------|
G:-----------6-----------------6-----------------8----------------------|
D:--------6-----------------7-----------------9-------------------------|
A:----4-----------------7------------------9----------------------------|
E:--------------------5-----------------7-------------7/97---5p4---0---|

E    A      B    C#m    A    B    

E    A    C#m    B

E
Eu te-as dori
          A
Tu m-ai iubi
    C#m           B
Si un secol zi de zi
     C#m             A
L-as trai numai cu tine
            B
Daca-ai fi aici
E
M-ai alinta
       A
Te-as adora
  C#m          B
Dragostea ce-o port
    C#m              A
As imparti-o doar cu tine
             B
Daca-ai fi aici 
E
Acum te caut
    A     B
La intamplare
      C#m         A  B
Oare cand te voi gasi?
E
Acum te caut
   A      B
Suflet pereche
      C#m        A   B
Numai tu ma poti iubi

Refren:
E                     G#m
Sunt clipele in care visez
    C#m                B
Si noptile in care nu dorm
          C#m           A        B
Stiind ca tu undeva in lume ma astept
 E                     G#m
Sunt soaptele pe care le-aud
  C#m                   B
Si norii de pe cer care plang
         C#m           A        B
Stiind ca tu undeva in lume ma astepti


Voi fi al tau
Vei fi a mea
Fiecare anotimp il voi numara cu tine
Cand vei fi aici
Te voi iubi
Ma vei dori
Soarele va rasari zi de zi pentru tine
Cand vei fi aicï