Alex feat. Connect-R & Smiley - Dragoste la prima vedere

  • (42 voturi)
  • Contribuție:  Lalu
  • Ultima actualizare: 11.05.2008
E destul de dificil de cantat cu slide-ul asta, dar nu e chiar imposibil.
Pe melodie cred ca sunt vreo 2 chitari, ca altfel nu prea vad cum se poate 
canta...
Mai erau vreo 2 slide-uri, da' si-asa e nashpa :D.
Nota: Unde scrie C vine un acord scurt cu a doua chitara, dar se poate si 
fara.

Intro + Refren:

                    C                       C    
e-|-----8/10-------8/10---|-----8/10-------8/10---|
B-|-8---------------------|-8---------------------|
G-|---7------0---8--------|---7------0---8--------|
D-|------------8--------8-|------------8--------8-|
A-|-----------------------|-----------------------|
E-|-----------------------|-----------------------|

e-|-----8/10-------8/10---|---------------------|
B-|-8---------------------|---------------------|
G-|---7------0---8------7-|-7h8p7---78-10---875-|
D-|------------8----------|---------------------|
A-|-----------------------|---------------------|
E-|-----------------------|---------------------|

Strofa:

e-|-----------------------------------------|
B-|-3---3/4---3---3/4---3---3/4---3---3/4---|
G-|-----------------------------------------|
D-|-----------------------------------------|
A-|-----------------------------------------|
E-|-----------------------------------------|
  • remusik16
    12 iulie 2010 00:24
    chiarr e pian ...cn nu crede ..s poate uita la clip....dupa care mai stam d vb :D....succeseee..:)) :)) :))
  • Lalu
    15 octombrie 2009 20:01
    :)) mersi cerbule, chiar incepusem sa ma simt prost pt ca nu imi confirma nimeni k nu-s kiar nebun :)>-.
  • Lalu
    12 iulie 2009 07:54
    A... sefu'... btw, ce se-aude prima kestie e kitara pe piesa. Si eu ce am pus aici e DOAR kitara acustica. Mai dati-va cu parerea kre stiti muzica dak eu sunt asa de prost inkt sa nu imi dau seama k ala ar fi pian.
    P.S.: Am invatat singur sa cant.
6Ld5REUUAAAAAA1PBEDya2BDGnf5rYKeKnmYm4Cz
4c02a5ece809e56e4e7dea58d796e9b6