Alexandru Andrieș - Noaptea unei zile noi

Intro:
e|-------------------------------------|
B|-------------------------------------|
G|-5-----4----------2-0---------4-2-0--|
D|---5-3---3-2--0-2-----3-0-1-2--------|
A|-------------------------------------|
E|-------------------------------------|

e|-------------------------------------|
B|-------------------------------------|
G|-5-----4----------2-0----------------|
D|---5-3---3-2--0-2-----3-0------------|
A|--------------------------3----------|
E|-------------------------------------|


C                 G                     C    
E noapte afara si stau lungit la mine-n pat
C                   E               Am  F 
Ma gandesc la toate cate s-au intamplat 
C           E       Am                  F    
Somnul e-un musafir din ce in ce mai ciudat
5C                      G                     C%    
Cand e noapte afara si stau lungit la mine-n pat

Am sange pe scara, am urme de gloante-n pereti
Si-oricum as intoarce-o am minus la prea multe vieti
Sa spele tot ce-a fost n-are cerul munti de nameti
Am sange pe scara, am urme de gloante-n pereti

F                  C                   
Mama mea imi spune "Te rog nu te baga
G                                      C    
Nimic nu e sigur, stai cuminte-n banca ta"
F                C              Am   
Dar eu niciodata n-am prea ascultat
C                    G                   C    
Si mai am un defect: sunt foarte incapatanat

E                              Am                F    
E greu de stiut de-aici cine-a tras si cine-a tradat
C                              G                     C    
Dar fiindca atatia-au murit eu pot sa stau la mine-n pat
       Am       F      
Fara rusine sau frica
C                   G                   C     
Doamne, ai grija de toti cei care-au plecat!
6Ld5REUUAAAAAA1PBEDya2BDGnf5rYKeKnmYm4Cz
84bc0c2354797bbe6158030044b3f6b7