Alexandru Andrieș - Ochi de ciocolata

  • (1 voturi)
  • Contribuție:  sorin_s
  • Ultima actualizare: 19.11.2008
F#                     B7                F#   F#7             
Are ochi de ciocolata si priveste uite-asa... (riff)
    B7                                  F#  D#7      
Are ochi de ciocolata si priveste uite-asa...
          C#7           B7                F#  C#7    
Cand iese ea pe strada, toti se uita dupa ea.

Are par lung si moale, roscat-auriu
Are par lung si moale, roscat-auriu
Si poarta la gat un fular visiniu.

Dac-o vezi, da-mi de stire si-alerg cat de iute pot...
Dac-o vezi, da-mi de stire si-alerg cat de iute pot...
A plecat ieri de la mine cu inima mea cu tot !

Riff:
e|----------------
B|----------------
G|-----0-3-0----0-
D|--0h3------0h3--
A|----------------
E|----------------

   F# B7 C#7 D#7 F#7
e|-2--2--4---x---2--
B|-2--4--6---4---2--
G|-3--2--4---6---3--
D|-4--4--6---5---2--
A|-4--2--4---6---4--
E|-2--2--4---x---2--
6Ld5REUUAAAAAA1PBEDya2BDGnf5rYKeKnmYm4Cz
0a03402bcea11d52c89b73402b1ada8b