Alexandru Andrieș - Șefu'

  • Contribuție:  CalinGuga
  • Ultima actualizare: 22.01.2014
  (introducere și acompaniament pentru refren (aproximativ):)
E  - ---------------|----------------| - ---------------|----------------||
B 1~3-1-0-----------|--1-------0-----|1~3-1-0-----------|--1-------0-----||
G 2~4-2-0--0---0---0|--2--2-0-----0-0|2~4-2-0--0---0---0|--2--2-0----0---||
D  - -----------0---|------0---0---0-| - -----------0---|------0---0---0-||
A  - -------02------|----------------| - -------02------|----------------||
E  - ---------------|2-------3-------| - ---------------|2-------3-------||

  (la strofe, acorduri ciupite; maniera pare să difere în funcție de versiune; eu fac cam așa:)
  D7      G
E ----------------||
B 1-------0-------||
G --2---2---0---0-||
D ----0-------0---||
A ----0-------2---||
E 2-------3-------||

  Refren:
Nimeni nu-i așa perfect
Ca șefu'!
Și simpatic, și deștept...
Ce om!
Nimeni nu-i așa perfect
Ca șefu'!
Nici un fir de păr pe piept...
Ce om!

   D7          G
1. Tandru însă dur, 
D7           G
Ferm dar maleabil,
D7         G
Iubitor de artă, 
   D7           G
Cu suflet de contabil!
D7          G
  Elegant, desigur, 
D7         G
  Suplu-durduliu,
D7       G
  Are și gușiță, 
D7          G   C   G
  Are și cheliu!

(din loc în loc, Andrieș sare primul timp (doar la voce, nu și la acompaniament), i. e.
D7           G
  Suplu-durduliu     în loc de
D7         G
Suplu-durduliu)

Refren

2. Enervant de veșnic, 
Tânăr dar matur, 
Trup de baiaderă, 
Suflet blând și pur!
Primu-n toate cele, 
Neasemuit, 
Ia helicopterul 
Dacă e grăbit!

Refren

3. Colorat la vorbe, 
Aspru dar sever, 
Moale ca mănușa 
Pe un pumn de fier!
Fără nicio jenă 
La televizor, 
Și mai și acasă,
Dar ascultător!

Refren
6Ld5REUUAAAAAA1PBEDya2BDGnf5rYKeKnmYm4Cz
a07375d8b9b69b725c7d6c68f2e38d40