Alina Manole - Niciodata inger

  • (1 voturi)
  • Contribuție:  Dite
E------0---------0---------0------0--------0-------0-----0
B------0---------0---------0------0--------1-------1-----0
G------5---------5---------5------5--------2-------2-----1
D------5---------5--------4-----4---------3------3-------2
A----0---------0-----------------------------------------2
E-----------------------------------------------------0---

     Eu n-o sa fiu      ingerul            tau,       poate-o noapte
Ma va ispiti o rafala de vant
Sa te caut de undeva de departe
Fara sa-ti spun niciun cuvant

Refren:
N-o sa fiu ingerul tau niciodata
Poate-o secund-o sa-ntarzii candva
La telefon n-o sa sun doar o data
Cat sa aud:"Alo, e cineva?"
Dm                      E7
N-o sa fiu ingerul tau vreodata
Am                        C
Poate-o secund-o sa-ti apar in vis
Dm                         E7
Cat sa ma ierti c-am fost demodata
Dm                           E7
Si c-am uitat tot ce ti-am promis

Poti sa ma strigi totdeauna pe nume
Oricum numele nu mi-l stiai
Ingerii morti de ispita din lume
Si cine-ajunge, hai spune-mi in Rai?

Refren:

Eu n-o sa fiu ingerul tau niciodata
Poate-o secund-o sa-ntarzii candva
La telefon n-o sa sun doar o data
Cat sa aud:"Alo, e cineva?"
Cat sa aud:"Alo, e cineva?"
Cat sa aud, cat sa aud: Alo,
E cineva?
E cineva?
E cineva?


Strofele si prima parte a refrenului se canta dupa cum e scris in intro, 
a doua parte a refrenului are un artificiu pe Am:

E------0----0-----0--
B------1----1-----1--
G------2----2-----0--
D------2----0-----2--
A----0-----2----3----
E---------------------

Pentru imbunatari sau variante mai bune, lasati mesaj

http://www.youtube.com/watch?v=2JYx2Spxi5Q
6Ld5REUUAAAAAA1PBEDya2BDGnf5rYKeKnmYm4Cz
593222eecddc51bf4134a045089cadec