Alternosfera - Columb

  • (2 voturi)
  • Contribuție:  anonim647
intro:

Bb Bb7sus4 X2

strofa:

Bb           Bb7sus4         G#
    N-am obosit sa tot caut inaltul                 
	             G#7sus4 sau G#sus4
    Am spus ca nu-mi place
                         Bb
    Mi-am spus ca vreau altul

Dar unde n-am fost
In goana nevoiei
Cer mult mi-am gasit
Fara de sarmele ploii

Peisaj vertical
Gradini orizontale
Incoltite in ploi
Torentiale

Bb             Bb7sus4   
    Am ochii de plumb
                 G#
    Am ochii de plumb
                Bb7sus4
    Ma cheama Columb

refren: aceiasi armonie ca la strofa


in acelasi timp cu armonia:
e|-----------------------------------|
B|--4-----4-----4--2---2-2-2---------|
G|-----3-----3----------------5-3-1--|
D|-----------------------------------|
A|-----------------------------------|
E|-----------------------------------|

Eu m-am trezit nascut
In colivie
Cu ochi reci si tristi
De mic, am amnezie

Orasul imi canta
Imi suiera-n minte
Am degete strambe
Infipte in minte

Oare imi pare
Ca eu merg pe mare
Ca vantul din nord
Arunca valul ce sare

Priveste-ma lung
Am ochiï de plumb
Eu sunt Columb


solo:

e|-------------------------------------------|
B|--16----16-----16--14---14-14-14-----------|
G|-----15----15---------------------17-15-13-|
D|-------------------------------------------|
A|-------------------------------------------|
E|-------------------------------------------|

e|------------------------------------------------------------|
B|------------------------------------------------------------|
G|------------------------------------------------------------|X4
D|---18--18--17--17--15--15--13--18--18--17--17--15--15--13---|
A|------------------------------------------------------------|
E|------------------------------------------------------------|

strofa

solo X8

Bb [1 1 3 3 3 1] 
Bb7sus4 [x 1 3 1 4 1] 
G# [4 6 6 5 4 4]
G#7sus4 [4 6 4 6 4 4]
G#sus4 [4 6 6 6 4 4]
9931034a53598e1d1055f4e6bec5e8f1