Amicii - Iar iarna

  • (1 voturi)
  • Contribuție:  cristake
  • Ultima actualizare: 21.03.2009
Intro:

E||----3-----3---3---------|----3-----3---3----------|
B||-------3----3---3-------|-------5----5---5--------|
G||------------------------|-------------------------|
D||------------------------|-------------------------|
A||------------------------|-------------------------|
E||------------------------|-------------------------|
De 4 ori...

G                   C  
Te-am vazut ieri pe la liceu
G              C        G       C
Era frig tremuram si eu
                       G
                 Este iarna

Vreau sa fim impreuna iar
Ne vedem marti la patinoar
                 Este iarna

Refren:
  G                 C 
E iar iarna si sunt iar cu tine
  G                C
E iar iarna si e tare bine
Am               C                             G
Fulgii de zapada iar se-astern acum pe trotuar

Ne-ntalnim pe la ora 5
O sa vin cu ai mei amici
                 Este iarna

Refren*2

Solo:

E||------------------------|----------------------------|
B||-------13p12-13-15-15---|----13p12----12--13---------|
G||------------------------|----------14---------12-----|
D||------------------------|----------------------------|
A||------------------------|----------------------------|
E||------------------------|----------------------------|


------------------------|----------------------------|
-------13p12-13-15-15---|----13p12----12--13---------|
------------------------|----------14---------12-----|
------------------------|----------------------------|
------------------------|----------------------------|
------------------------|----------------------------|

Refren*2