Anatol Dumitraș - Prima dragoste

GuitarPro-ul e incomplet dar asta e tot ce am putut face

Arpegiu pentru vers:

    Em                                       etc.. pentru celelalte acorduri
E||-----------0--------|-----------0--------| 
B||--------0-----0-----|--------0-----0-----|   
G||-----0-----------0--|-----0-----------0--|
D||--------------------|--------------------|
A||--------------------|--2-----------------|
E||--0-----------------|--------------------|


Em  Am            Em
Da, in sfârşit am ajuns
Am B7         C
şi la pagina ta
F#                 B
Ingălbenită de vremi...
Em Am               Em
Tu parcă nici nu ai fost
Am B7           C
şi nici n-ai existat,
F#    B7          Em
Prima dragoste-a mea.

Eu ochii vreau să-mi dezleg
şi pe-o clipă sa dau
Amintirilor frâu...
Când, când şi cum s-a-ntamplat
Ce-am facut de-am uitat
Glasul, numele tau.

Refren:

Acesta este paternul pentru ciupitura de la refren:

    Em                   Am                   B7 etc. pe celelalte acorduri
E||--------0--------0--|--------0--------0--|--------2--------2--|
B||--------0--------0--|--------1--------1--|--------0--------0--|
G||-----0--------0-----|-----2--------2-----|-----2--------2-----|
D||--------------------|-----------2--------|-----------1--------|
A||-----------2--------|--0-----------------|--2-----------------|
E||--0-----------------|--------------------|--------------------|


Em             Am
Vino pe aripi de dor,
B7                Em
In albă rochiţă cu flori
Em    F#
Dragoste,
B7                Em
Prima dragoste-a mea
Em G            Am
Vino cu primul sarut
D                 G   B7
Cel mai frumos si mai sfânt 
Em                F#
Vino şi nu mai pleca
B7                Am
Prima dragoste-a mea.

Da, astăzi e ziua ta,
Tu in inima mea
Te-ai născut din nou
ştiu că-ntr-o zi vei veni
Intr-un şir de cocori
Prima dragoste-a mea

Refren.
  • remusik16
    12 decembrie 2010 20:48
    sall....am si eu o intrebare...cu se numesc chestiile alea pe care le pui pe degete sa ciupesti coardele...daca stie cnv si imi poate sp...ii multumesc din inima :D

Transpunerile de pe acest site reprezintă viziunea personală a utilizatorilor asupra pieselor.
2c0dfb84cf4070f38dc2a05fc6ae7e33
f7e9d1d2-ebba-44ba-8198-e810bddf71a6