Andrew - All I Need

  • Contribuție:  Tzutzu
  • Ultima actualizare: 19.07.2012
~       ~
~ INTRO ~
~       ~

E: |--5-5-5-5---5-5--7-8-------------------------------------------|
B: |--5-5-5-5---6-6--8-8-------------------------------------------|
G: |--5-5-5-5---7-7--9-7-------------------------------------------|
D: |---------------------------------------------------------------|
A: |---------------------------------------------------------------|
E: |---------------------------------------------------------------|

~       ~
~ Verse ~
~       ~


E: |--5-555--5-555---5-555---7-777---------------------------------|
B: |--5-555--5-555---6-666---8-888---------------------------------|
G: |--5-555--5-555---7-777---9-999---------------------------------|
D: |---------------------------------------------------------------|
A: |---------------------------------------------------------------|
E: |---------------------------------------------------------------|

 

INTRO ~~~~~  ~~~~~                    ~
   
Loving you like I never loved before

I'm telling you I can't love another girl


VERSE ~~~~~ ~~~~~  
         
This feeling is burning inside me 
                              
I want you to stay here beside me 
                                                        
I'm feeling so sad when you're sad you don't need to worry



Pre-chorus:

You give me love every day
                 
And I'm loving that
                      
You give me love every day (x2)




** Aceleasi acorduri toata melodia .. **