Animal X - Balada

mda, baieti de la animal x au cantat live la tonomatu de pe 2,
unde sau acompaniet du ghitarile.
acordurile sunt usoare.

http://youtube.com/watch?v=k6rMd66NLZA

  E     G     C     D
e--0-|--3--|--0--|--2--|
b--0-|-(3)-|--1--|--3--|
g--0-|--0--|--0--|--2--|
d--2-|--0--|--2--|--0--|
a--2-|--0--|--3--|-----|
e--0-|--3--|--0--|-----|

gitara acustica

notele de la acel asa numit "solo", sunt deja pe net.

e--7-7--------------7-7-----------------------
b--8-8--------------8-8-----------------------
g--9-9--7-9--9-7-9--9-9---7-9--9-7-9----------
d---------------------------------------------
a---------------------------------------------
e---------------------------------------------

asta canta gitara electrica, si effekt, ceva chorus, flanger, si wahwah.

vara sa pierut,.. toamna a trecut..iarna a sosit..sperantza n-a pierit
                                                                      
e-10-10---10-8--7-----7-7--7-5-3--------3-3-3-5-3-------3-3--3--2--0--
b-12-12---12-10-8-----8-8--8-7-5--------5-5-5-7-5-------5-5--5--3--0--
g---------------------------------------------------------------------
d---------------------------------------------------------------------
a---------------------------------------------------------------------
e---------------------------------------------------------------------
  • kanu95
    20 ianuarie 2011 11:20
    =)) ... asta e limbajul din chitaria de pe planeta chitaria =))

Transpunerile de pe acest site reprezintă viziunea personală a utilizatorilor asupra pieselor.
b9ecf7267da86a77af1ee56da5f7259c
f7e9d1d2-ebba-44ba-8198-e810bddf71a6