Animal X - Balada (ciupitura)

E|---------0--0---2--2--3---2--0--------0--0---2--2---3---3---2--3---5---7--
B|---0--0-------------------------0--0--------------------------------------
G|--------------------------------------------------------------------------
D|--------------------------------------------------------------------------
A|--------------------------------------------------------------------------
E|--------------------------------------------------------------------------

--6--7--6--7--6--7--6--7--7--7--8--7--8--7--8--7--8--10--8--6--7--6--7--6--
---------------------------------------------------------------------------
---------------------------------------------------------------------------
---------------------------------------------------------------------------
---------------------------------------------------------------------------
---------------------------------------------------------------------------

-7--6--7--8--7--5--3--0----|
---------------------------|
---------------------------|
---------------------------|
---------------------------|
---------------------------|


Accept critici pentru inbunatatirea tab-ului:)

Transpunerile de pe acest site reprezintă viziunea personală a utilizatorilor asupra pieselor.
3b6e9d36865d5bbc7f9481b792cd1332
f7e9d1d2-ebba-44ba-8198-e810bddf71a6