Animal X - Balada (Intro)

(Intro)


E|---------------------------------------------------------------------------|
B|---------5-5--7-7-----7-8-7-5-----------5-5--7-7--8-8---8-7-10-12----------|
G|----4-4----------------------------4-4-------------------------------------|
D|---------------------------------------------------------------------------|
A|---------------------------------------------------------------------------|
E|---------------------------------------------------------------------------|

E|---------------------------------------------------------------------------|
B|----10-12--10-12--10-12--10-12--12-12----12-13--12-13--12-13--12-13--15-13-|
G|---------------------------------------------------------------------------|
D|---------------------------------------------------------------------------|
A|---------------------------------------------------------------------------|
E|---------------------------------------------------------------------------|

E|---------------------------------------------------------------------------|
B|----10-12--10-12--10-12--10-12--13-12----10---12---10---5------------------|
G|---------------------------------------------------------------------------|
D|---------------------------------------------------------------------------|
A|---------------------------------------------------------------------------|
E|---------------------------------------------------------------------------|
a9069443f09d0691c1c3ec321b343e64
6Ld5REUUAAAAAA1PBEDya2BDGnf5rYKeKnmYm4Cz