Animal X - Doar tu si eu - Solo

  • Contribuție:  siL3nCio
E||-----------------------------|-10-10-10-10-9-----------|
B||-----------------------------|---------------12-10-----|
G||-----------------9/11/9------|-------------------------|
D||---------9-11-12-------------|-------------------------|
A||-9-10-12---------------------|-------------------------|
E||-----------------------------|-------------------------|


E||-----------------------------|-------------------------|
B||-7h8p7---7------7-8-7h8p7----|-------------------------|
G||-------9----7-9-----------9--|-6/7/6-------------------|
D||-----------------------------|-------7-----------------|
A||-----------------------------|---------10-9------------|
E||-----------------------------|-------------------------|


E||-----------------------------|-10-10-10-10-9-----------|
B||-----------------------------|---------------12-10-----|
G||-----------------9/11/9------|-------------------------|
D||---------9-11-12-------------|-------------------------|
A||-9-10-12---------------------|-------------------------|
E||-----------------------------|-------------------------|


E||-----------------------------|-------------------------|
B||-7h8p7---7------7-8-7h8p7----|-------------------------|
G||-------9----7-9-----------9--|-6h7p6-------------------|
D||-----------------------------|-------7-----------------|
A||-----------------------------|---------9---------------|
E||-----------------------------|-------------------------|

/ = slide
p = pull off
h = hammer on
  • masterpas
    21 aprilie 2012 16:36
    cea mai buna varianta de pana acuma...well done...
0d603ae72fe7b7382e36915f46948a9c
6Ld5REUUAAAAAA1PBEDya2BDGnf5rYKeKnmYm4Cz