Animal X - Nisip purtat de vant (solo)

E||--8--8--8--8--8--6h8p6--4--3-----3--4/6--4--3--------||
B||------------------------------4----------------4--1--||
G||-----------------------------------------------------||
D||-----------------------------------------------------||
A||-----------------------------------------------------||
E||-----------------------------------------------------||

E||---------------------------------3--4--3--3--------||
B||-----------------1--2--1h2p1--4--------------4--1--||
G||--------0--1--3------------------------------------||
D||--1--3---------------------------------------------||
A||---------------------------------------------------||
E||---------------------------------------------------||

*1h2p1 (1hammer-on2pull-off1)
  • kanu95
    31 ianuarie 2011 16:10
    ce inseamna 6h8p6 si 1h2p1 ? sunt incepator si am vazut la mai multe melodii chestii de genu asta ... spuneti`mi si mie va rog
  • c4bl3_6uy
    2 februarie 2010 20:22
    mulțumesc din nou. cu hammer-on pull-off nu prea a mers treaba, dar se vede în tab aici.
  • c4bl3_6uy
    2 ianuarie 2010 11:48
    ai dreptate, era si un do acolo. multumesc

Transpunerile de pe acest site reprezintă viziunea personală a utilizatorilor asupra pieselor.
df88506997a080b6c584e5ba1c4fec29
f7e9d1d2-ebba-44ba-8198-e810bddf71a6