Anonim - Cine-i nascut in Ianuarie (solo)

E------------0-----0------------------------0----0----------------
B-1-1-1-1-1-3-3-1---3-1-0-3-1---1-1-1-1-1-3---3-1-3-1-0-3-1-------
G-----------------------------0-----------------------------------
D-----------------------------------------------------------------
A-----------------------------------------------------------------
E-----------------------------------------------------------------

E-3-3-3-5-3-3-1-0-1--1-1-1-3-1-1-0--0---0-----------0--0----------
B----------------------------------3-----3-1-0-3-1-3----3-1-0-3-1-
G-----------------------------------------------------------------
D-----------------------------------------------------------------
A-----------------------------------------------------------------
E-----------------------------------------------------------------
  • dragosh97
    27 iulie 2011 20:47
    braavoo:D:D:D