Bere Gratis - Campuri de lupta (intro)

  • (7 voturi)
  • Contribuție:  anonim301
~Intro~

E--10-10-10-8-8-8-8-8-7-7-7-8-8-8-8-8-10-10-10-8-8-8-8-8
B-------------------------------------------------------
G-------------------------------------------------------
D-------------------------------------------------------
A-------------------------------------------------------
E-------------------------------------------------------

E--15-15-15-7-7-8-7-8-----------------------------------
B-------------------------------------------------------
G-------------------------------------------------------
D-------------------------------------------------------
A-------------------------------------------------------
E-------------------------------------------------------

E--10-10-10-8-8-8-8-8-7-7-7-8-8-8-8-8-10-10-10-8-8-8-8-8
B-------------------------------------------------------
G-------------------------------------------------------
D-------------------------------------------------------
A-------------------------------------------------------
E-------------------------------------------------------

E--15-15-15-7-7-8-7-10----------------------------------
B-------------------------------------------------------
G-------------------------------------------------------
D-------------------------------------------------------
A-------------------------------------------------------
E-------------------------------------------------------
178a889b9422cdb10a4005e0b7321713